 0
SECTION
 2
HEADER
 9
$ACADVER
 1
AC1006
 9
$INSBASE
 10
0
 20
0
 9
$EXTMIN
 10
0
 20
0
 9
$EXTMAX
 10
1522
 20
523
 9
$LIMMIN
 10
0
 20
0
 9
$LIMMAX
 10
1522
 20
523
 0
ENDSEC
 0
SECTION
 2
TABLES
 0
TABLE
 2 
LTYPE
 70
 1
 0
LTYPE
 2
CONTINUOUS
 70
 64
 3
Solid line
 72
 65
 73
 0
 40
 0.0
 0
ENDTAB
 0
TABLE
 2 
LAYER
 70
 4
 0
LAYER
 2
Text
 70
 64
 62
 6
 6
CONTINUOUS
 0
LAYER
 2
Line
 70
 64
 62
 1
 6
CONTINUOUS
 0
LAYER
 2
Poly
 70
 64
 62
 3
 6
CONTINUOUS
 0
ENDTAB
 0
ENDSEC
 0
SECTION
 2
BLOCKS
 0
ENDSEC
 0
SECTION
 2
ENTITIES
 0
LINE
 8
Line
 10
406
 20
417
 11
409
 21
391
 0
LINE
 8
Line
 10
409
 20
391
 11
411
 21
391
 0
POLYLINE
 8
Poly
 66
 1
 0
VERTEX
 8
Poly
 10
411
 20
391
 0
VERTEX
 8
Poly
 10
411
 20
394
 0
VERTEX
 8
Poly
 10
413
 20
396
 0
VERTEX
 8
Poly
 10
413
 20
394
 0
SEQEND
 8
Poly
 0
LINE
 8
Line
 10
409
 20
377
 11
409
 21
379
 0
POLYLINE
 8
Poly
 66
 1
 0
VERTEX
 8
Poly
 10
413
 20
394
 0
VERTEX
 8
Poly
 10
414
 20
389
 0
VERTEX
 8
Poly
 10
413
 20
388
 0
VERTEX
 8
Poly
 10
407
 20
388
 0
SEQEND
 8
Poly
 0
POLYLINE
 8
Poly
 66
 1
 0
VERTEX
 8
Poly
 10
409
 20
379
 0
VERTEX
 8
Poly
 10
413
 20
383
 0
VERTEX
 8
Poly
 10
409
 20
382
 0
SEQEND
 8
Poly
 0
LINE
 8
Line
 10
407
 20
388
 11
407
 21
386
 0
LINE
 8
Line
 10
409
 20
382
 11
409
 21
384
 0
LINE
 8
Line
 10
407
 20
386
 11
411
 21
386
 0
POLYLINE
 8
Poly
 66
 1
 0
VERTEX
 8
Poly
 10
409
 20
384
 0
VERTEX
 8
Poly
 10
411
 20
385
 0
VERTEX
 8
Poly
 10
411
 20
386
 0
SEQEND
 8
Poly
 0
LINE
 8
Line
 10
411
 20
385
 11
412
 21
385
 0
POLYLINE
 8
Poly
 66
 1
 0
VERTEX
 8
Poly
 10
475
 20
377
 0
VERTEX
 8
Poly
 10
475
 20
375
 0
VERTEX
 8
Poly
 10
478
 20
371
 0
SEQEND
 8
Poly
 0
LINE
 8
Line
 10
537
 20
374
 11
537
 21
376
 0
POLYLINE
 8
Poly
 66
 1
 0
VERTEX
 8
Poly
 10
537
 20
376
 0
VERTEX
 8
Poly
 10
527
 20
376
 0
VERTEX
 8
Poly
 10
523
 20
379
 0
VERTEX
 8
Poly
 10
523
 20
391
 0
VERTEX
 8
Poly
 10
524
 20
392
 0
VERTEX
 8
Poly
 10
526
 20
392
 0
VERTEX
 8
Poly
 10
526
 20
394
 0
SEQEND
 8
Poly
 0
POLYLINE
 8
Poly
 66
 1
 0
VERTEX
 8
Poly
 10
525
 20
374
 0
VERTEX
 8
Poly
 10
524
 20
371
 0
VERTEX
 8
Poly
 10
479
 20
373
 0
VERTEX
 8
Poly
 10
479
 20
375
 0
VERTEX
 8
Poly
 10
487
 20
375
 0
SEQEND
 8
Poly
 0
LINE
 8
Line
 10
587
 20
375
 11
587
 21
373
 0
POLYLINE
 8
Poly
 66
 1
 0
VERTEX
 8
Poly
 10
632
 20
434
 0
VERTEX
 8
Poly
 10
637
 20
378
 0
VERTEX
 8
Poly
 10
642
 20
374
 0
VERTEX
 8
Poly
 10
648
 20
374
 0
SEQEND
 8
Poly
 0
LINE
 8
Line
 10
587
 20
373
 11
590
 21
370
 0
LINE
 8
Line
 10
648
 20
374
 11
648
 21
372
 0
LINE
 8
Line
 10
644
 20
369
 11
590
 21
370
 0
LINE
 8
Line
 10
648
 20
372
 11
644
 21
369
 0
LINE
 8
Line
 10
705
 20
373
 11
705
 21
368
 0
LINE
 8
Line
 10
753
 20
391
 11
753
 21
389
 0
POLYLINE
 8
Poly
 66
 1
 0
VERTEX
 8
Poly
 10
705
 20
368
 0
VERTEX
 8
Poly
 10
758
 20
366
 0
VERTEX
 8
Poly
 10
759
 20
367
 0
VERTEX
 8
Poly
 10
759
 20
369
 0
VERTEX
 8
Poly
 10
757
 20
372
 0
VERTEX
 8
Poly
 10
752
 20
372
 0
SEQEND
 8
Poly
 0
LINE
 8
Line
 10
753
 20
389
 11
751
 21
389
 0
LINE
 8
Line
 10
750
 20
371
 11
752
 21
372
 0
LINE
 8
Line
 10
635
 20
415
 11
637
 21
371
 0
LINE
 8
Line
 10
601
 20
375
 11
593
 21
373
 0
LINE
 8
Line
 10
637
 20
371
 11
639
 21
371
 0
LINE
 8
Line
 10
593
 20
373
 11
593
 21
372
 0
POLYLINE
 8
Poly
 66
 1
 0
VERTEX
 8
Poly
 10
639
 20
371
 0
VERTEX
 8
Poly
 10
641
 20
370
 0
VERTEX
 8
Poly
 10
640
 20
369
 0
SEQEND
 8
Poly
 0
LINE
 8
Line
 10
816
 20
372
 11
816
 21
370
 0
POLYLINE
 8
Poly
 66
 1
 0
VERTEX
 8
Poly
 10
871
 20
371
 0
VERTEX
 8
Poly
 10
872
 20
369
 0
VERTEX
 8
Poly
 10
872
 20
367
 0
VERTEX
 8
Poly
 10
870
 20
365
 0
VERTEX
 8
Poly
 10
818
 20
368
 0
VERTEX
 8
Poly
 10
816
 20
370
 0
SEQEND
 8
Poly
 0
LINE
 8
Line
 10
715
 20
411
 11
712
 21
370
 0
POLYLINE
 8
Poly
 66
 1
 0
VERTEX
 8
Poly
 10
859
 20
413
 0
VERTEX
 8
Poly
 10
861
 20
368
 0
VERTEX
 8
Poly
 10
858
 20
366
 0
SEQEND
 8
Poly
 0
POLYLINE
 8
Poly
 66
 1
 0
VERTEX
 8
Poly
 10
821
 20
368
 0
VERTEX
 8
Poly
 10
821
 20
370
 0
VERTEX
 8
Poly
 10
824
 20
370
 0
SEQEND
 8
Poly
 0
LINE
 8
Line
 10
1093
 20
388
 11
1093
 21
377
 0
LINE
 8
Line
 10
1039
 20
384
 11
1043
 21
384
 0
POLYLINE
 8
Poly
 66
 1
 0
VERTEX
 8
Poly
 10
1093
 20
377
 0
VERTEX
 8
Poly
 10
1089
 20
376
 0
VERTEX
 8
Poly
 10
1088
 20
375
 0
VERTEX
 8
Poly
 10
1088
 20
372
 0
VERTEX
 8
Poly
 10
1091
 20
372
 0
SEQEND
 8
Poly
 0
POLYLINE
 8
Poly
 66
 1
 0
VERTEX
 8
Poly
 10
1043
 20
384
 0
VERTEX
 8
Poly
 10
1043
 20
382
 0
VERTEX
 8
Poly
 10
1042
 20
381
 0
VERTEX
 8
Poly
 10
1037
 20
383
 0
SEQEND
 8
Poly
 0
LINE
 8
Line
 10
1091
 20
372
 11
1091
 21
374
 0
LINE
 8
Line
 10
1037
 20
383
 11
1035
 21
383
 0
LINE
 8
Line
 10
1091
 20
374
 11
1093
 21
374
 0
POLYLINE
 8
Poly
 66
 1
 0
VERTEX
 8
Poly
 10
1035
 20
383
 0
VERTEX
 8
Poly
 10
1035
 20
381
 0
VERTEX
 8
Poly
 10
1041
 20
375
 0
SEQEND
 8
Poly
 0
LINE
 8
Line
 10
1093
 20
374
 11
1096
 21
370
 0
LINE
 8
Line
 10
1041
 20
375
 11
1038
 21
372
 0
LINE
 8
Line
 10
1096
 20
370
 11
1096
 21
368
 0
LINE
 8
Line
 10
1038
 20
372
 11
1038
 21
370
 0
POLYLINE
 8
Poly
 66
 1
 0
VERTEX
 8
Poly
 10
1096
 20
368
 0
VERTEX
 8
Poly
 10
1095
 20
365
 0
VERTEX
 8
Poly
 10
1101
 20
365
 0
SEQEND
 8
Poly
 0
LINE
 8
Line
 10
1101
 20
365
 11
1101
 21
363
 0
LINE
 8
Line
 10
936
 20
369
 11
936
 21
365
 0
LINE
 8
Line
 10
984
 20
388
 11
984
 21
386
 0
POLYLINE
 8
Poly
 66
 1
 0
VERTEX
 8
Poly
 10
936
 20
365
 0
VERTEX
 8
Poly
 10
983
 20
363
 0
VERTEX
 8
Poly
 10
986
 20
365
 0
SEQEND
 8
Poly
 0
LINE
 8
Line
 10
982
 20
386
 11
984
 21
386
 0
LINE
 8
Line
 10
1049
 20
372
 11
1044
 21
372
 0
POLYLINE
 8
Poly
 66
 1
 0
VERTEX
 8
Poly
 10
977
 20
422
 0
VERTEX
 8
Poly
 10
983
 20
366
 0
VERTEX
 8
Poly
 10
982
 20
365
 0
VERTEX
 8
Poly
 10
955
 20
367
 0
VERTEX
 8
Poly
 10
954
 20
369
 0
SEQEND
 8
Poly
 0
POLYLINE
 8
Poly
 66
 1
 0
VERTEX
 8
Poly
 10
944
 20
367
 0
VERTEX
 8
Poly
 10
946
 20
365
 0
VERTEX
 8
Poly
 10
950
 20
365
 0
VERTEX
 8
Poly
 10
952
 20
367
 0
VERTEX
 8
Poly
 10
952
 20
369
 0
VERTEX
 8
Poly
 10
954
 20
369
 0
SEQEND
 8
Poly
 0
POLYLINE
 8
Poly
 66
 1
 0
VERTEX
 8
Poly
 10
446
 20
389
 0
VERTEX
 8
Poly
 10
443
 20
389
 0
VERTEX
 8
Poly
 10
442
 20
393
 0
VERTEX
 8
Poly
 10
444
 20
393
 0
SEQEND
 8
Poly
 0
LINE
 8
Line
 10
446
 20
391
 11
444
 21
393
 0
LINE
 8
Line
 10
446
 20
389
 11
446
 21
391
 0
POLYLINE
 8
Poly
 66
 1
 0
VERTEX
 8
Poly
 10
429
 20
387
 0
VERTEX
 8
Poly
 10
426
 20
389
 0
VERTEX
 8
Poly
 10
426
 20
391
 0
VERTEX
 8
Poly
 10
436
 20
391
 0
SEQEND
 8
Poly
 0
LINE
 8
Line
 10
436
 20
389
 11
436
 21
391
 0
LINE
 8
Line
 10
429
 20
387
 11
436
 21
389
 0
POLYLINE
 8
Poly
 66
 1
 0
VERTEX
 8
Poly
 10
1017
 20
389
 0
VERTEX
 8
Poly
 10
1017
 20
391
 0
VERTEX
 8
Poly
 10
1020
 20
391
 0
SEQEND
 8
Poly
 0
LINE
 8
Line
 10
1020
 20
389
 11
1017
 21
389
 0
LINE
 8
Line
 10
1020
 20
391
 11
1020
 21
389
 0
POLYLINE
 8
Poly
 66
 1
 0
VERTEX
 8
Poly
 10
989
 20
387
 0
VERTEX
 8
Poly
 10
989
 20
389
 0
VERTEX
 8
Poly
 10
991
 20
389
 0
SEQEND
 8
Poly
 0
LINE
 8
Line
 10
991
 20
387
 11
989
 21
387
 0
LINE
 8
Line
 10
991
 20
389
 11
991
 21
387
 0
POLYLINE
 8
Poly
 66
 1
 0
VERTEX
 8
Poly
 10
438
 20
386
 0
VERTEX
 8
Poly
 10
438
 20
388
 0
VERTEX
 8
Poly
 10
440
 20
388
 0
SEQEND
 8
Poly
 0
LINE
 8
Line
 10
440
 20
386
 11
438
 21
386
 0
LINE
 8
Line
 10
440
 20
388
 11
440
 21
386
 0
POLYLINE
 8
Poly
 66
 1
 0
VERTEX
 8
Poly
 10
476
 20
387
 0
VERTEX
 8
Poly
 10
474
 20
387
 0
VERTEX
 8
Poly
 10
471
 20
384
 0
VERTEX
 8
Poly
 10
472
 20
379
 0
SEQEND
 8
Poly
 0
LINE
 8
Line
 10
472
 20
379
 11
474
 21
379
 0
POLYLINE
 8
Poly
 66
 1
 0
VERTEX
 8
Poly
 10
1014
 20
385
 0
VERTEX
 8
Poly
 10
1014
 20
387
 0
VERTEX
 8
Poly
 10
1016
 20
387
 0
SEQEND
 8
Poly
 0
LINE
 8
Line
 10
1016
 20
385
 11
1014
 21
385
 0
LINE
 8
Line
 10
1016
 20
387
 11
1016
 21
385
 0
POLYLINE
 8
Poly
 66
 1
 0
VERTEX
 8
Poly
 10
1019
 20
382
 0
VERTEX
 8
Poly
 10
1018
 20
387
 0
VERTEX
 8
Poly
 10
1021
 20
387
 0
SEQEND
 8
Poly
 0
LINE
 8
Line
 10
1021
 20
382
 11
1019
 21
382
 0
LINE
 8
Line
 10
1021
 20
387
 11
1021
 21
382
 0
POLYLINE
 8
Poly
 66
 1
 0
VERTEX
 8
Poly
 10
416
 20
386
 0
VERTEX
 8
Poly
 10
416
 20
384
 0
VERTEX
 8
Poly
 10
418
 20
381
 0
VERTEX
 8
Poly
 10
421
 20
381
 0
VERTEX
 8
Poly
 10
422
 20
382
 0
VERTEX
 8
Poly
 10
422
 20
385
 0
VERTEX
 8
Poly
 10
421
 20
386
 0
VERTEX
 8
Poly
 10
416
 20
386
 0
SEQEND
 8
Poly
 0
POLYLINE
 8
Poly
 66
 1
 0
VERTEX
 8
Poly
 10
1011
 20
386
 0
VERTEX
 8
Poly
 10
1009
 20
386
 0
VERTEX
 8
Poly
 10
1008
 20
385
 0
VERTEX
 8
Poly
 10
1008
 20
379
 0
SEQEND
 8
Poly
 0
LINE
 8
Line
 10
1010
 20
379
 11
1008
 21
379
 0
LINE
 8
Line
 10
1011
 20
386
 11
1010
 21
379
 0
POLYLINE
 8
Poly
 66
 1
 0
VERTEX
 8
Poly
 10
869
 20
383
 0
VERTEX
 8
Poly
 10
869
 20
385
 0
VERTEX
 8
Poly
 10
871
 20
385
 0
SEQEND
 8
Poly
 0
LINE
 8
Line
 10
871
 20
383
 11
869
 21
383
 0
LINE
 8
Line
 10
871
 20
385
 11
871
 21
383
 0
POLYLINE
 8
Poly
 66
 1
 0
VERTEX
 8
Poly
 10
874
 20
379
 0
VERTEX
 8
Poly
 10
874
 20
385
 0
VERTEX
 8
Poly
 10
876
 20
385
 0
SEQEND
 8
Poly
 0
LINE
 8
Line
 10
876
 20
379
 11
874
 21
379
 0
LINE
 8
Line
 10
876
 20
385
 11
876
 21
379
 0
POLYLINE
 8
Poly
 66
 1
 0
VERTEX
 8
Poly
 10
1029
 20
383
 0
VERTEX
 8
Poly
 10
1029
 20
385
 0
VERTEX
 8
Poly
 10
1031
 20
385
 0
SEQEND
 8
Poly
 0
LINE
 8
Line
 10
1031
 20
383
 11
1029
 21
383
 0
LINE
 8
Line
 10
1031
 20
385
 11
1031
 21
383
 0
POLYLINE
 8
Poly
 66
 1
 0
VERTEX
 8
Poly
 10
1057
 20
381
 0
VERTEX
 8
Poly
 10
1057
 20
383
 0
VERTEX
 8
Poly
 10
1059
 20
383
 0
SEQEND
 8
Poly
 0
LINE
 8
Line
 10
1059
 20
381
 11
1057
 21
381
 0
LINE
 8
Line
 10
1059
 20
383
 11
1059
 21
381
 0
POLYLINE
 8
Poly
 66
 1
 0
VERTEX
 8
Poly
 10
1089
 20
383
 0
VERTEX
 8
Poly
 10
1090
 20
379
 0
VERTEX
 8
Poly
 10
1088
 20
379
 0
VERTEX
 8
Poly
 10
1089
 20
383
 0
SEQEND
 8
Poly
 0
POLYLINE
 8
Poly
 66
 1
 0
VERTEX
 8
Poly
 10
1001
 20
381
 0
VERTEX
 8
Poly
 10
1001
 20
379
 0
VERTEX
 8
Poly
 10
1002
 20
378
 0
VERTEX
 8
Poly
 10
1005
 20
378
 0
SEQEND
 8
Poly
 0
LINE
 8
Line
 10
1005
 20
380
 11
1001
 21
381
 0
LINE
 8
Line
 10
1005
 20
378
 11
1005
 21
380
 0
POLYLINE
 8
Poly
 66
 1
 0
VERTEX
 8
Poly
 10
1029
 20
379
 0
VERTEX
 8
Poly
 10
1029
 20
381
 0
VERTEX
 8
Poly
 10
1031
 20
381
 0
SEQEND
 8
Poly
 0
LINE
 8
Line
 10
1031
 20
379
 11
1029
 21
379
 0
LINE
 8
Line
 10
1031
 20
381
 11
1031
 21
379
 0
POLYLINE
 8
Poly
 66
 1
 0
VERTEX
 8
Poly
 10
399
 20
210
 0
VERTEX
 8
Poly
 10
409
 20
225
 0
VERTEX
 8
Poly
 10
411
 20
225
 0
VERTEX
 8
Poly
 10
411
 20
179
 0
SEQEND
 8
Poly
 0
LINE
 8
Line
 10
411
 20
179
 11
413
 21
179
 0
POLYLINE
 8
Poly
 66
 1
 0
VERTEX
 8
Poly
 10
413
 20
179
 0
VERTEX
 8
Poly
 10
413
 20
247
 0
VERTEX
 8
Poly
 10
417
 20
246
 0
VERTEX
 8
Poly
 10
417
 20
245
 0
SEQEND
 8
Poly
 0
LINE
 8
Line
 10
417
 20
245
 11
419
 21
245
 0
POLYLINE
 8
Poly
 66
 1
 0
VERTEX
 8
Poly
 10
419
 20
245
 0
VERTEX
 8
Poly
 10
421
 20
251
 0
VERTEX
 8
Poly
 10
422
 20
252
 0
VERTEX
 8
Poly
 10
459
 20
252
 0
VERTEX
 8
Poly
 10
461
 20
250
 0
VERTEX
 8
Poly
 10
461
 20
175
 0
SEQEND
 8
Poly
 0
POLYLINE
 8
Poly
 66
 1
 0
VERTEX
 8
Poly
 10
461
 20
175
 0
VERTEX
 8
Poly
 10
466
 20
175
 0
VERTEX
 8
Poly
 10
466
 20
173
 0
SEQEND
 8
Poly
 0
POLYLINE
 8
Poly
 66
 1
 0
VERTEX
 8
Poly
 10
466
 20
173
 0
VERTEX
 8
Poly
 10
473
 20
173
 0
VERTEX
 8
Poly
 10
476
 20
171
 0
VERTEX
 8
Poly
 10
476
 20
169
 0
SEQEND
 8
Poly
 0
LINE
 8
Line
 10
476
 20
169
 11
478
 21
169
 0
POLYLINE
 8
Poly
 66
 1
 0
VERTEX
 8
Poly
 10
478
 20
169
 0
VERTEX
 8
Poly
 10
478
 20
171
 0
VERTEX
 8
Poly
 10
479
 20
172
 0
VERTEX
 8
Poly
 10
530
 20
173
 0
SEQEND
 8
Poly
 0
POLYLINE
 8
Poly
 66
 1
 0
VERTEX
 8
Poly
 10
530
 20
173
 0
VERTEX
 8
Poly
 10
529
 20
245
 0
VERTEX
 8
Poly
 10
535
 20
244
 0
SEQEND
 8
Poly
 0
POLYLINE
 8
Poly
 66
 1
 0
VERTEX
 8
Poly
 10
535
 20
244
 0
VERTEX
 8
Poly
 10
537
 20
249
 0
VERTEX
 8
Poly
 10
538
 20
250
 0
VERTEX
 8
Poly
 10
576
 20
250
 0
VERTEX
 8
Poly
 10
578
 20
248
 0
VERTEX
 8
Poly
 10
577
 20
173
 0
SEQEND
 8
Poly
 0
LINE
 8
Line
 10
577
 20
173
 11
582
 21
173
 0
LINE
 8
Line
 10
582
 20
173
 11
584
 21
171
 0
LINE
 8
Line
 10
584
 20
171
 11
597
 21
169
 0
POLYLINE
 8
Poly
 66
 1
 0
VERTEX
 8
Poly
 10
597
 20
169
 0
VERTEX
 8
Poly
 10
601
 20
174
 0
VERTEX
 8
Poly
 10
601
 20
171
 0
SEQEND
 8
Poly
 0
POLYLINE
 8
Poly
 66
 1
 0
VERTEX
 8
Poly
 10
601
 20
171
 0
VERTEX
 8
Poly
 10
631
 20
171
 0
VERTEX
 8
Poly
 10
632
 20
169
 0
SEQEND
 8
Poly
 0
LINE
 8
Line
 10
647
 20
175
 11
647
 21
177
 0
LINE
 8
Line
 10
647
 20
177
 11
579
 21
179
 0
POLYLINE
 8
Poly
 66
 1
 0
VERTEX
 8
Poly
 10
579
 20
179
 0
VERTEX
 8
Poly
 10
580
 20
216
 0
VERTEX
 8
Poly
 10
584
 20
214
 0
SEQEND
 8
Poly
 0
POLYLINE
 8
Poly
 66
 1
 0
VERTEX
 8
Poly
 10
646
 20
240
 0
VERTEX
 8
Poly
 10
648
 20
240
 0
VERTEX
 8
Poly
 10
649
 20
239
 0
VERTEX
 8
Poly
 10
649
 20
174
 0
SEQEND
 8
Poly
 0
LINE
 8
Line
 10
649
 20
174
 11
651
 21
174
 0
LINE
 8
Line
 10
651
 20
174
 11
651
 21
248
 0
POLYLINE
 8
Poly
 66
 1
 0
VERTEX
 8
Poly
 10
651
 20
248
 0
VERTEX
 8
Poly
 10
692
 20
248
 0
VERTEX
 8
Poly
 10
693
 20
247
 0
SEQEND
 8
Poly
 0
LINE
 8
Line
 10
693
 20
247
 11
703
 21
209
 0
LINE
 8
Line
 10
765
 20
233
 11
768
 21
235
 0
LINE
 8
Line
 10
768
 20
235
 11
768
 21
246
 0
LINE
 8
Line
 10
768
 20
246
 11
808
 21
246
 0
POLYLINE
 8
Poly
 66
 1
 0
VERTEX
 8
Poly
 10
808
 20
246
 0
VERTEX
 8
Poly
 10
808
 20
239
 0
VERTEX
 8
Poly
 10
809
 20
238
 0
VERTEX
 8
Poly
 10
812
 20
239
 0
SEQEND
 8
Poly
 0
LINE
 8
Line
 10
411
 20
253
 11
413
 21
253
 0
LINE
 8
Line
 10
812
 20
239
 11
811
 21
240
 0
POLYLINE
 8
Poly
 66
 1
 0
VERTEX
 8
Poly
 10
413
 20
253
 0
VERTEX
 8
Poly
 10
418
 20
249
 0
VERTEX
 8
Poly
 10
419
 20
254
 0
SEQEND
 8
Poly
 0
POLYLINE
 8
Poly
 66
 1
 0
VERTEX
 8
Poly
 10
766
 20
248
 0
VERTEX
 8
Poly
 10
810
 20
248
 0
VERTEX
 8
Poly
 10
811
 20
240
 0
VERTEX
 8
Poly
 10
813
 20
244
 0
SEQEND
 8
Poly
 0
LINE
 8
Line
 10
419
 20
254
 11
463
 21
253
 0
LINE
 8
Line
 10
810
 20
248
 11
766
 21
248
 0
LINE
 8
Line
 10
813
 20
244
 11
815
 21
244
 0
LINE
 8
Line
 10
463
 20
253
 11
464
 21
220
 0
POLYLINE
 8
Poly
 66
 1
 0
VERTEX
 8
Poly
 10
766
 20
248
 0
VERTEX
 8
Poly
 10
764
 20
238
 0
VERTEX
 8
Poly
 10
762
 20
244
 0
SEQEND
 8
Poly
 0
POLYLINE
 8
Poly
 66
 1
 0
VERTEX
 8
Poly
 10
883
 20
245
 0
VERTEX
 8
Poly
 10
921
 20
245
 0
VERTEX
 8
Poly
 10
923
 20
243
 0
VERTEX
 8
Poly
 10
924
 20
236
 0
SEQEND
 8
Poly
 0
LINE
 8
Line
 10
464
 20
220
 11
478
 21
208
 0
LINE
 8
Line
 10
762
 20
244
 11
760
 21
244
 0
LINE
 8
Line
 10
870
 20
206
 11
870
 21
207
 0
LINE
 8
Line
 10
924
 20
236
 11
929
 21
237
 0
LINE
 8
Line
 10
962
 20
190
 11
983
 21
197
 0
POLYLINE
 8
Poly
 66
 1
 0
VERTEX
 8
Poly
 10
760
 20
244
 0
VERTEX
 8
Poly
 10
760
 20
219
 0
VERTEX
 8
Poly
 10
751
 20
207
 0
VERTEX
 8
Poly
 10
750
 20
207
 0
SEQEND
 8
Poly
 0
POLYLINE
 8
Poly
 66
 1
 0
VERTEX
 8
Poly
 10
983
 20
197
 0
VERTEX
 8
Poly
 10
993
 20
207
 0
VERTEX
 8
Poly
 10
998
 20
241
 0
VERTEX
 8
Poly
 10
999
 20
241
 0
SEQEND
 8
Poly
 0
LINE
 8
Line
 10
516
 20
210
 11
516
 21
211
 0
LINE
 8
Line
 10
750
 20
207
 11
750
 21
206
 0
POLYLINE
 8
Poly
 66
 1
 0
VERTEX
 8
Poly
 10
876
 20
244
 0
VERTEX
 8
Poly
 10
881
 20
242
 0
VERTEX
 8
Poly
 10
881
 20
247
 0
SEQEND
 8
Poly
 0
POLYLINE
 8
Poly
 66
 1
 0
VERTEX
 8
Poly
 10
999
 20
241
 0
VERTEX
 8
Poly
 10
999
 20
243
 0
VERTEX
 8
Poly
 10
1000
 20
244
 0
VERTEX
 8
Poly
 10
1037
 20
244
 0
VERTEX
 8
Poly
 10
1039
 20
242
 0
VERTEX
 8
Poly
 10
1040
 20
236
 0
SEQEND
 8
Poly
 0
LINE
 8
Line
 10
527
 20
245
 11
527
 21
249
 0
LINE
 8
Line
 10
699
 20
219
 11
698
 21
245
 0
POLYLINE
 8
Poly
 66
 1
 0
VERTEX
 8
Poly
 10
881
 20
247
 0
VERTEX
 8
Poly
 10
922
 20
247
 0
VERTEX
 8
Poly
 10
925
 20
245
 0
VERTEX
 8
Poly
 10
925
 20
240
 0
VERTEX
 8
Poly
 10
928
 20
240
 0
SEQEND
 8
Poly
 0
LINE
 8
Line
 10
1040
 20
236
 11
1045
 21
236
 0
POLYLINE
 8
Poly
 66
 1
 0
VERTEX
 8
Poly
 10
527
 20
249
 0
VERTEX
 8
Poly
 10
534
 20
248
 0
VERTEX
 8
Poly
 10
535
 20
249
 0
VERTEX
 8
Poly
 10
535
 20
252
 0
SEQEND
 8
Poly
 0
POLYLINE
 8
Poly
 66
 1
 0
VERTEX
 8
Poly
 10
698
 20
245
 0
VERTEX
 8
Poly
 10
696
 20
245
 0
VERTEX
 8
Poly
 10
695
 20
246
 0
VERTEX
 8
Poly
 10
695
 20
249
 0
VERTEX
 8
Poly
 10
694
 20
250
 0
VERTEX
 8
Poly
 10
649
 20
250
 0
SEQEND
 8
Poly
 0
LINE
 8
Line
 10
928
 20
240
 11
929
 21
243
 0
LINE
 8
Line
 10
535
 20
252
 11
583
 21
249
 0
POLYLINE
 8
Poly
 66
 1
 0
VERTEX
 8
Poly
 10
649
 20
250
 0
VERTEX
 8
Poly
 10
646
 20
246
 0
VERTEX
 8
Poly
 10
646
 20
247
 0
SEQEND
 8
Poly
 0
LINE
 8
Line
 10
929
 20
243
 11
931
 21
243
 0
POLYLINE
 8
Poly
 66
 1
 0
VERTEX
 8
Poly
 10
1113
 20
243
 0
VERTEX
 8
Poly
 10
1156
 20
242
 0
VERTEX
 8
Poly
 10
1156
 20
241
 0
SEQEND
 8
Poly
 0
LINE
 8
Line
 10
583
 20
249
 11
581
 21
221
 0
LINE
 8
Line
 10
646
 20
247
 11
644
 21
247
 0
LINE
 8
Line
 10
633
 20
208
 11
632
 21
208
 0
LINE
 8
Line
 10
981
 20
199
 11
984
 21
201
 0
LINE
 8
Line
 10
632
 20
208
 11
632
 21
207
 0
LINE
 8
Line
 10
984
 20
201
 11
984
 21
202
 0
LINE
 8
Line
 10
995
 20
224
 11
993
 21
242
 0
POLYLINE
 8
Poly
 66
 1
 0
VERTEX
 8
Poly
 10
993
 20
242
 0
VERTEX
 8
Poly
 10
996
 20
242
 0
VERTEX
 8
Poly
 10
997
 20
243
 0
VERTEX
 8
Poly
 10
997
 20
246
 0
SEQEND
 8
Poly
 0
POLYLINE
 8
Poly
 66
 1
 0
VERTEX
 8
Poly
 10
997
 20
246
 0
VERTEX
 8
Poly
 10
1038
 20
246
 0
VERTEX
 8
Poly
 10
1041
 20
244
 0
VERTEX
 8
Poly
 10
1043
 20
239
 0
VERTEX
 8
Poly
 10
1045
 20
242
 0
SEQEND
 8
Poly
 0
LINE
 8
Line
 10
1045
 20
242
 11
1047
 21
242
 0
LINE
 8
Line
 10
1101
 20
200
 11
1101
 21
201
 0
LINE
 8
Line
 10
1109
 20
244
 11
1163
 21
241
 0
POLYLINE
 8
Poly
 66
 1
 0
VERTEX
 8
Poly
 10
996
 20
378
 0
VERTEX
 8
Poly
 10
996
 20
380
 0
VERTEX
 8
Poly
 10
998
 20
380
 0
SEQEND
 8
Poly
 0
LINE
 8
Line
 10
998
 20
378
 11
996
 21
378
 0
LINE
 8
Line
 10
998
 20
380
 11
998
 21
378
 0
POLYLINE
 8
Poly
 66
 1
 0
VERTEX
 8
Poly
 10
1008
 20
364
 0
VERTEX
 8
Poly
 10
1012
 20
375
 0
VERTEX
 8
Poly
 10
1017
 20
380
 0
VERTEX
 8
Poly
 10
1019
 20
380
 0
SEQEND
 8
Poly
 0
LINE
 8
Line
 10
1019
 20
380
 11
1013
 21
371
 0
LINE
 8
Line
 10
1008
 20
364
 11
1010
 21
364
 0
POLYLINE
 8
Poly
 66
 1
 0
VERTEX
 8
Poly
 10
1013
 20
371
 0
VERTEX
 8
Poly
 10
1009
 20
367
 0
VERTEX
 8
Poly
 10
1010
 20
364
 0
SEQEND
 8
Poly
 0
POLYLINE
 8
Poly
 66
 1
 0
VERTEX
 8
Poly
 10
541
 20
377
 0
VERTEX
 8
Poly
 10
541
 20
379
 0
VERTEX
 8
Poly
 10
543
 20
379
 0
SEQEND
 8
Poly
 0
LINE
 8
Line
 10
543
 20
377
 11
541
 21
377
 0
LINE
 8
Line
 10
543
 20
379
 11
543
 21
377
 0
POLYLINE
 8
Poly
 66
 1
 0
VERTEX
 8
Poly
 10
725
 20
377
 0
VERTEX
 8
Poly
 10
725
 20
379
 0
VERTEX
 8
Poly
 10
727
 20
379
 0
SEQEND
 8
Poly
 0
LINE
 8
Line
 10
727
 20
377
 11
725
 21
377
 0
LINE
 8
Line
 10
727
 20
379
 11
727
 21
377
 0
POLYLINE
 8
Poly
 66
 1
 0
VERTEX
 8
Poly
 10
428
 20
376
 0
VERTEX
 8
Poly
 10
428
 20
378
 0
VERTEX
 8
Poly
 10
431
 20
378
 0
SEQEND
 8
Poly
 0
LINE
 8
Line
 10
431
 20
376
 11
428
 21
376
 0
LINE
 8
Line
 10
431
 20
378
 11
431
 21
376
 0
POLYLINE
 8
Poly
 66
 1
 0
VERTEX
 8
Poly
 10
570
 20
376
 0
VERTEX
 8
Poly
 10
570
 20
378
 0
VERTEX
 8
Poly
 10
572
 20
378
 0
SEQEND
 8
Poly
 0
LINE
 8
Line
 10
572
 20
376
 11
570
 21
376
 0
LINE
 8
Line
 10
572
 20
378
 11
572
 21
376
 0
POLYLINE
 8
Poly
 66
 1
 0
VERTEX
 8
Poly
 10
984
 20
376
 0
VERTEX
 8
Poly
 10
984
 20
378
 0
VERTEX
 8
Poly
 10
986
 20
378
 0
SEQEND
 8
Poly
 0
LINE
 8
Line
 10
986
 20
376
 11
984
 21
376
 0
LINE
 8
Line
 10
986
 20
378
 11
986
 21
376
 0
POLYLINE
 8
Poly
 66
 1
 0
VERTEX
 8
Poly
 10
1095
 20
375
 0
VERTEX
 8
Poly
 10
1095
 20
377
 0
VERTEX
 8
Poly
 10
1097
 20
377
 0
SEQEND
 8
Poly
 0
LINE
 8
Line
 10
1097
 20
375
 11
1095
 21
375
 0
LINE
 8
Line
 10
1097
 20
377
 11
1097
 21
375
 0
POLYLINE
 8
Poly
 66
 1
 0
VERTEX
 8
Poly
 10
580
 20
374
 0
VERTEX
 8
Poly
 10
580
 20
376
 0
VERTEX
 8
Poly
 10
582
 20
376
 0
SEQEND
 8
Poly
 0
LINE
 8
Line
 10
582
 20
374
 11
580
 21
374
 0
LINE
 8
Line
 10
582
 20
376
 11
582
 21
374
 0
POLYLINE
 8
Poly
 66
 1
 0
VERTEX
 8
Poly
 10
937
 20
374
 0
VERTEX
 8
Poly
 10
937
 20
376
 0
VERTEX
 8
Poly
 10
939
 20
376
 0
SEQEND
 8
Poly
 0
LINE
 8
Line
 10
939
 20
374
 11
937
 21
374
 0
LINE
 8
Line
 10
939
 20
376
 11
939
 21
374
 0
LINE
 8
Line
 10
428
 20
373
 11
430
 21
373
 0
POLYLINE
 8
Poly
 66
 1
 0
VERTEX
 8
Poly
 10
422
 20
350
 0
VERTEX
 8
Poly
 10
426
 20
350
 0
VERTEX
 8
Poly
 10
428
 20
348
 0
VERTEX
 8
Poly
 10
429
 20
342
 0
VERTEX
 8
Poly
 10
424
 20
337
 0
VERTEX
 8
Poly
 10
422
 20
337
 0
SEQEND
 8
Poly
 0
POLYLINE
 8
Poly
 66
 1
 0
VERTEX
 8
Poly
 10
430
 20
373
 0
VERTEX
 8
Poly
 10
430
 20
369
 0
VERTEX
 8
Poly
 10
433
 20
367
 0
VERTEX
 8
Poly
 10
438
 20
367
 0
SEQEND
 8
Poly
 0
POLYLINE
 8
Poly
 66
 1
 0
VERTEX
 8
Poly
 10
422
 20
337
 0
VERTEX
 8
Poly
 10
421
 20
316
 0
VERTEX
 8
Poly
 10
426
 20
312
 0
VERTEX
 8
Poly
 10
461
 20
311
 0
VERTEX
 8
Poly
 10
464
 20
313
 0
SEQEND
 8
Poly
 0
LINE
 8
Line
 10
438
 20
370
 11
438
 21
366
 0
LINE
 8
Line
 10
438
 20
367
 11
439
 21
368
 0
LINE
 8
Line
 10
465
 20
363
 11
438
 21
366
 0
LINE
 8
Line
 10
439
 20
368
 11
440
 21
368
 0
LINE
 8
Line
 10
440
 20
370
 11
438
 21
370
 0
LINE
 8
Line
 10
440
 20
368
 11
440
 21
370
 0
POLYLINE
 8
Poly
 66
 1
 0
VERTEX
 8
Poly
 10
443
 20
370
 0
VERTEX
 8
Poly
 10
443
 20
372
 0
VERTEX
 8
Poly
 10
445
 20
372
 0
SEQEND
 8
Poly
 0
LINE
 8
Line
 10
445
 20
370
 11
443
 21
370
 0
LINE
 8
Line
 10
445
 20
372
 11
445
 21
370
 0
POLYLINE
 8
Poly
 66
 1
 0
VERTEX
 8
Poly
 10
1021
 20
370
 0
VERTEX
 8
Poly
 10
1021
 20
372
 0
VERTEX
 8
Poly
 10
1023
 20
372
 0
SEQEND
 8
Poly
 0
LINE
 8
Line
 10
1023
 20
370
 11
1021
 21
370
 0
LINE
 8
Line
 10
1023
 20
372
 11
1023
 21
370
 0
POLYLINE
 8
Poly
 66
 1
 0
VERTEX
 8
Poly
 10
1030
 20
370
 0
VERTEX
 8
Poly
 10
1030
 20
372
 0
VERTEX
 8
Poly
 10
1036
 20
372
 0
SEQEND
 8
Poly
 0
LINE
 8
Line
 10
1036
 20
370
 11
1030
 21
370
 0
LINE
 8
Line
 10
1036
 20
372
 11
1036
 21
370
 0
POLYLINE
 8
Poly
 66
 1
 0
VERTEX
 8
Poly
 10
901
 20
369
 0
VERTEX
 8
Poly
 10
901
 20
371
 0
VERTEX
 8
Poly
 10
903
 20
371
 0
SEQEND
 8
Poly
 0
LINE
 8
Line
 10
903
 20
369
 11
901
 21
369
 0
LINE
 8
Line
 10
903
 20
371
 11
903
 21
369
 0
POLYLINE
 8
Poly
 66
 1
 0
VERTEX
 8
Poly
 10
1058
 20
369
 0
VERTEX
 8
Poly
 10
1058
 20
371
 0
VERTEX
 8
Poly
 10
1060
 20
371
 0
SEQEND
 8
Poly
 0
LINE
 8
Line
 10
1060
 20
369
 11
1058
 21
369
 0
LINE
 8
Line
 10
1060
 20
371
 11
1060
 21
369
 0
POLYLINE
 8
Poly
 66
 1
 0
VERTEX
 8
Poly
 10
931
 20
368
 0
VERTEX
 8
Poly
 10
931
 20
370
 0
VERTEX
 8
Poly
 10
933
 20
370
 0
SEQEND
 8
Poly
 0
LINE
 8
Line
 10
933
 20
368
 11
931
 21
368
 0
LINE
 8
Line
 10
933
 20
370
 11
933
 21
368
 0
POLYLINE
 8
Poly
 66
 1
 0
VERTEX
 8
Poly
 10
1024
 20
366
 0
VERTEX
 8
Poly
 10
1024
 20
368
 0
VERTEX
 8
Poly
 10
1026
 20
368
 0
SEQEND
 8
Poly
 0
LINE
 8
Line
 10
1026
 20
366
 11
1024
 21
366
 0
LINE
 8
Line
 10
1026
 20
368
 11
1026
 21
366
 0
POLYLINE
 8
Poly
 66
 1
 0
VERTEX
 8
Poly
 10
1029
 20
366
 0
VERTEX
 8
Poly
 10
1029
 20
368
 0
VERTEX
 8
Poly
 10
1031
 20
368
 0
SEQEND
 8
Poly
 0
LINE
 8
Line
 10
1031
 20
366
 11
1029
 21
366
 0
LINE
 8
Line
 10
1031
 20
368
 11
1031
 21
366
 0
POLYLINE
 8
Poly
 66
 1
 0
VERTEX
 8
Poly
 10
1035
 20
368
 0
VERTEX
 8
Poly
 10
1033
 20
368
 0
VERTEX
 8
Poly
 10
1033
 20
362
 0
VERTEX
 8
Poly
 10
1029
 20
358
 0
VERTEX
 8
Poly
 10
1001
 20
358
 0
VERTEX
 8
Poly
 10
1000
 20
359
 0
VERTEX
 8
Poly
 10
1000
 20
361
 0
SEQEND
 8
Poly
 0
LINE
 8
Line
 10
1000
 20
361
 11
998
 21
361
 0
POLYLINE
 8
Poly
 66
 1
 0
VERTEX
 8
Poly
 10
1041
 20
344
 0
VERTEX
 8
Poly
 10
1038
 20
341
 0
VERTEX
 8
Poly
 10
1035
 20
341
 0
VERTEX
 8
Poly
 10
1034
 20
340
 0
VERTEX
 8
Poly
 10
1036
 20
331
 0
VERTEX
 8
Poly
 10
1041
 20
329
 0
SEQEND
 8
Poly
 0
POLYLINE
 8
Poly
 66
 1
 0
VERTEX
 8
Poly
 10
1041
 20
329
 0
VERTEX
 8
Poly
 10
1041
 20
308
 0
VERTEX
 8
Poly
 10
1037
 20
304
 0
VERTEX
 8
Poly
 10
999
 20
306
 0
SEQEND
 8
Poly
 0
POLYLINE
 8
Poly
 66
 1
 0
VERTEX
 8
Poly
 10
463
 20
361
 0
VERTEX
 8
Poly
 10
428
 20
367
 0
VERTEX
 8
Poly
 10
424
 20
353
 0
VERTEX
 8
Poly
 10
425
 20
352
 0
VERTEX
 8
Poly
 10
430
 20
350
 0
SEQEND
 8
Poly
 0
LINE
 8
Line
 10
430
 20
350
 11
430
 21
339
 0
LINE
 8
Line
 10
430
 20
339
 11
428
 21
337
 0
LINE
 8
Line
 10
462
 20
314
 11
427
 21
314
 0
POLYLINE
 8
Poly
 66
 1
 0
VERTEX
 8
Poly
 10
540
 20
367
 0
VERTEX
 8
Poly
 10
540
 20
362
 0
VERTEX
 8
Poly
 10
539
 20
361
 0
VERTEX
 8
Poly
 10
537
 20
361
 0
VERTEX
 8
Poly
 10
537
 20
351
 0
VERTEX
 8
Poly
 10
539
 20
348
 0
VERTEX
 8
Poly
 10
541
 20
348
 0
VERTEX
 8
Poly
 10
543
 20
345
 0
VERTEX
 8
Poly
 10
543
 20
339
 0
VERTEX
 8
Poly
 10
539
 20
335
 0
VERTEX
 8
Poly
 10
537
 20
335
 0
SEQEND
 8
Poly
 0
LINE
 8
Line
 10
537
 20
335
 11
537
 21
311
 0
LINE
 8
Line
 10
581
 20
363
 11
580
 21
347
 0
POLYLINE
 8
Poly
 66
 1
 0
VERTEX
 8
Poly
 10
537
 20
311
 0
VERTEX
 8
Poly
 10
579
 20
310
 0
VERTEX
 8
Poly
 10
580
 20
311
 0
VERTEX
 8
Poly
 10
577
 20
344
 0
VERTEX
 8
Poly
 10
580
 20
347
 0
SEQEND
 8
Poly
 0
POLYLINE
 8
Poly
 66
 1
 0
VERTEX
 8
Poly
 10
768
 20
363
 0
VERTEX
 8
Poly
 10
768
 20
366
 0
VERTEX
 8
Poly
 10
770
 20
366
 0
SEQEND
 8
Poly
 0
LINE
 8
Line
 10
770
 20
363
 11
768
 21
363
 0
LINE
 8
Line
 10
770
 20
366
 11
770
 21
363
 0
POLYLINE
 8
Poly
 66
 1
 0
VERTEX
 8
Poly
 10
807
 20
366
 0
VERTEX
 8
Poly
 10
807
 20
362
 0
VERTEX
 8
Poly
 10
806
 20
361
 0
VERTEX
 8
Poly
 10
804
 20
361
 0
SEQEND
 8
Poly
 0
LINE
 8
Line
 10
807
 20
366
 11
809
 21
366
 0
POLYLINE
 8
Poly
 66
 1
 0
VERTEX
 8
Poly
 10
811
 20
344
 0
VERTEX
 8
Poly
 10
810
 20
343
 0
VERTEX
 8
Poly
 10
807
 20
343
 0
SEQEND
 8
Poly
 0
POLYLINE
 8
Poly
 66
 1
 0
VERTEX
 8
Poly
 10
768
 20
361
 0
VERTEX
 8
Poly
 10
772
 20
335
 0
VERTEX
 8
Poly
 10
768
 20
332
 0
SEQEND
 8
Poly
 0
POLYLINE
 8
Poly
 66
 1
 0
VERTEX
 8
Poly
 10
807
 20
344
 0
VERTEX
 8
Poly
 10
807
 20
343
 0
VERTEX
 8
Poly
 10
806
 20
342
 0
VERTEX
 8
Poly
 10
805
 20
340
 0
VERTEX
 8
Poly
 10
810
 20
309
 0
VERTEX
 8
Poly
 10
807
 20
307
 0
VERTEX
 8
Poly
 10
768
 20
308
 0
SEQEND
 8
Poly
 0
LINE
 8
Line
 10
768
 20
332
 11
768
 21
308
 0
POLYLINE
 8
Poly
 66
 1
 0
VERTEX
 8
Poly
 10
653
 20
363
 0
VERTEX
 8
Poly
 10
653
 20
365
 0
VERTEX
 8
Poly
 10
655
 20
365
 0
SEQEND
 8
Poly
 0
LINE
 8
Line
 10
655
 20
363
 11
653
 21
363
 0
LINE
 8
Line
 10
655
 20
365
 11
655
 21
363
 0
POLYLINE
 8
Poly
 66
 1
 0
VERTEX
 8
Poly
 10
1136
 20
364
 0
VERTEX
 8
Poly
 10
1136
 20
360
 0
VERTEX
 8
Poly
 10
1133
 20
357
 0
VERTEX
 8
Poly
 10
1128
 20
359
 0
SEQEND
 8
Poly
 0
POLYLINE
 8
Poly
 66
 1
 0
VERTEX
 8
Poly
 10
1136
 20
364
 0
VERTEX
 8
Poly
 10
1143
 20
362
 0
VERTEX
 8
Poly
 10
1143
 20
364
 0
SEQEND
 8
Poly
 0
POLYLINE
 8
Poly
 66
 1
 0
VERTEX
 8
Poly
 10
1128
 20
359
 0
VERTEX
 8
Poly
 10
1120
 20
358
 0
VERTEX
 8
Poly
 10
1116
 20
361
 0
SEQEND
 8
Poly
 0
LINE
 8
Line
 10
1116
 20
361
 11
1114
 21
361
 0
POLYLINE
 8
Poly
 66
 1
 0
VERTEX
 8
Poly
 10
885
 20
363
 0
VERTEX
 8
Poly
 10
883
 20
363
 0
VERTEX
 8
Poly
 10
886
 20
333
 0
VERTEX
 8
Poly
 10
883
 20
331
 0
SEQEND
 8
Poly
 0
LINE
 8
Line
 10
883
 20
331
 11
883
 21
307
 0
LINE
 8
Line
 10
885
 20
363
 11
885
 21
358
 0
LINE
 8
Line
 10
883
 20
307
 11
925
 21
305
 0
POLYLINE
 8
Poly
 66
 1
 0
VERTEX
 8
Poly
 10
923
 20
360
 0
VERTEX
 8
Poly
 10
923
 20
355
 0
VERTEX
 8
Poly
 10
926
 20
344
 0
SEQEND
 8
Poly
 0
LINE
 8
Line
 10
925
 20
305
 11
922
 21
330
 0
POLYLINE
 8
Poly
 66
 1
 0
VERTEX
 8
Poly
 10
926
 20
344
 0
VERTEX
 8
Poly
 10
920
 20
342
 0
VERTEX
 8
Poly
 10
919
 20
341
 0
VERTEX
 8
Poly
 10
921
 20
331
 0
VERTEX
 8
Poly
 10
922
 20
331
 0
VERTEX
 8
Poly
 10
922
 20
330
 0
SEQEND
 8
Poly
 0
POLYLINE
 8
Poly
 66
 1
 0
VERTEX
 8
Poly
 10
543
 20
361
 0
VERTEX
 8
Poly
 10
541
 20
359
 0
VERTEX
 8
Poly
 10
539
 20
358
 0
VERTEX
 8
Poly
 10
541
 20
354
 0
SEQEND
 8
Poly
 0
LINE
 8
Line
 10
541
 20
354
 11
541
 21
350
 0
LINE
 8
Line
 10
541
 20
350
 11
545
 21
351
 0
LINE
 8
Line
 10
577
 20
312
 11
539
 21
313
 0
LINE
 8
Line
 10
545
 20
351
 11
543
 21
335
 0
POLYLINE
 8
Poly
 66
 1
 0
VERTEX
 8
Poly
 10
653
 20
347
 0
VERTEX
 8
Poly
 10
653
 20
361
 0
VERTEX
 8
Poly
 10
695
 20
361
 0
SEQEND
 8
Poly
 0
LINE
 8
Line
 10
653
 20
347
 11
657
 21
345
 0
POLYLINE
 8
Poly
 66
 1
 0
VERTEX
 8
Poly
 10
657
 20
345
 0
VERTEX
 8
Poly
 10
657
 20
336
 0
VERTEX
 8
Poly
 10
653
 20
333
 0
SEQEND
 8
Poly
 0
LINE
 8
Line
 10
653
 20
310
 11
695
 21
310
 0
LINE
 8
Line
 10
653
 20
333
 11
653
 21
310
 0
POLYLINE
 8
Poly
 66
 1
 0
VERTEX
 8
Poly
 10
803
 20
355
 0
VERTEX
 8
Poly
 10
771
 20
359
 0
VERTEX
 8
Poly
 10
770
 20
358
 0
VERTEX
 8
Poly
 10
771
 20
346
 0
VERTEX
 8
Poly
 10
773
 20
345
 0
SEQEND
 8
Poly
 0
LINE
 8
Line
 10
773
 20
345
 11
773
 21
332
 0
LINE
 8
Line
 10
803
 20
355
 11
809
 21
358
 0
POLYLINE
 8
Poly
 66
 1
 0
VERTEX
 8
Poly
 10
771
 20
310
 0
VERTEX
 8
Poly
 10
806
 20
309
 0
VERTEX
 8
Poly
 10
808
 20
311
 0
VERTEX
 8
Poly
 10
805
 20
346
 0
SEQEND
 8
Poly
 0
POLYLINE
 8
Poly
 66
 1
 0
VERTEX
 8
Poly
 10
809
 20
358
 0
VERTEX
 8
Poly
 10
809
 20
347
 0
VERTEX
 8
Poly
 10
808
 20
346
 0
VERTEX
 8
Poly
 10
805
 20
346
 0
SEQEND
 8
Poly
 0
POLYLINE
 8
Poly
 66
 1
 0
VERTEX
 8
Poly
 10
1032
 20
354
 0
VERTEX
 8
Poly
 10
1032
 20
358
 0
VERTEX
 8
Poly
 10
1034
 20
359
 0
VERTEX
 8
Poly
 10
1039
 20
345
 0
VERTEX
 8
Poly
 10
1036
 20
343
 0
VERTEX
 8
Poly
 10
1032
 20
343
 0
SEQEND
 8
Poly
 0
LINE
 8
Line
 10
1032
 20
343
 11
1033
 21
330
 0
POLYLINE
 8
Poly
 66
 1
 0
VERTEX
 8
Poly
 10
1032
 20
354
 0
VERTEX
 8
Poly
 10
1009
 20
357
 0
VERTEX
 8
Poly
 10
1008
 20
355
 0
SEQEND
 8
Poly
 0
LINE
 8
Line
 10
1035
 20
306
 11
1001
 21
308
 0
POLYLINE
 8
Poly
 66
 1
 0
VERTEX
 8
Poly
 10
1008
 20
355
 0
VERTEX
 8
Poly
 10
1001
 20
356
 0
VERTEX
 8
Poly
 10
1000
 20
355
 0
VERTEX
 8
Poly
 10
1003
 20
330
 0
SEQEND
 8
Poly
 0
POLYLINE
 8
Poly
 66
 1
 0
VERTEX
 8
Poly
 10
1001
 20
308
 0
VERTEX
 8
Poly
 10
1002
 20
330
 0
VERTEX
 8
Poly
 10
1003
 20
330
 0
SEQEND
 8
Poly
 0
POLYLINE
 8
Poly
 66
 1
 0
VERTEX
 8
Poly
 10
457
 20
356
 0
VERTEX
 8
Poly
 10
457
 20
358
 0
VERTEX
 8
Poly
 10
459
 20
358
 0
SEQEND
 8
Poly
 0
LINE
 8
Line
 10
459
 20
356
 11
457
 21
356
 0
LINE
 8
Line
 10
459
 20
358
 11
459
 21
356
 0
POLYLINE
 8
Poly
 66
 1
 0
VERTEX
 8
Poly
 10
694
 20
357
 0
VERTEX
 8
Poly
 10
655
 20
358
 0
VERTEX
 8
Poly
 10
656
 20
348
 0
VERTEX
 8
Poly
 10
657
 20
348
 0
SEQEND
 8
Poly
 0
LINE
 8
Line
 10
657
 20
348
 11
657
 21
347
 0
POLYLINE
 8
Poly
 66
 1
 0
VERTEX
 8
Poly
 10
693
 20
312
 0
VERTEX
 8
Poly
 10
692
 20
311
 0
VERTEX
 8
Poly
 10
655
 20
312
 0
SEQEND
 8
Poly
 0
LINE
 8
Line
 10
657
 20
347
 11
658
 21
333
 0
POLYLINE
 8
Poly
 66
 1
 0
VERTEX
 8
Poly
 10
655
 20
312
 0
VERTEX
 8
Poly
 10
656
 20
332
 0
VERTEX
 8
Poly
 10
658
 20
333
 0
SEQEND
 8
Poly
 0
POLYLINE
 8
Poly
 66
 1
 0
VERTEX
 8
Poly
 10
1116
 20
356
 0
VERTEX
 8
Poly
 10
1121
 20
355
 0
VERTEX
 8
Poly
 10
1125
 20
353
 0
SEQEND
 8
Poly
 0
LINE
 8
Line
 10
1125
 20
353
 11
1136
 21
354
 0
POLYLINE
 8
Poly
 66
 1
 0
VERTEX
 8
Poly
 10
1140
 20
354
 0
VERTEX
 8
Poly
 10
1136
 20
356
 0
VERTEX
 8
Poly
 10
1136
 20
354
 0
SEQEND
 8
Poly
 0
POLYLINE
 8
Poly
 66
 1
 0
VERTEX
 8
Poly
 10
924
 20
346
 0
VERTEX
 8
Poly
 10
921
 20
344
 0
VERTEX
 8
Poly
 10
917
 20
344
 0
SEQEND
 8
Poly
 0
LINE
 8
Line
 10
885
 20
354
 11
888
 21
331
 0
POLYLINE
 8
Poly
 66
 1
 0
VERTEX
 8
Poly
 10
923
 20
308
 0
VERTEX
 8
Poly
 10
922
 20
307
 0
VERTEX
 8
Poly
 10
885
 20
309
 0
SEQEND
 8
Poly
 0
POLYLINE
 8
Poly
 66
 1
 0
VERTEX
 8
Poly
 10
559
 20
352
 0
VERTEX
 8
Poly
 10
559
 20
354
 0
VERTEX
 8
Poly
 10
561
 20
354
 0
SEQEND
 8
Poly
 0
LINE
 8
Line
 10
561
 20
352
 11
559
 21
352
 0
LINE
 8
Line
 10
561
 20
354
 11
561
 21
352
 0
POLYLINE
 8
Poly
 66
 1
 0
VERTEX
 8
Poly
 10
1012
 20
352
 0
VERTEX
 8
Poly
 10
1012
 20
354
 0
VERTEX
 8
Poly
 10
1014
 20
354
 0
SEQEND
 8
Poly
 0
LINE
 8
Line
 10
1014
 20
352
 11
1012
 21
352
 0
LINE
 8
Line
 10
1014
 20
354
 11
1014
 21
352
 0
POLYLINE
 8
Poly
 66
 1
 0
VERTEX
 8
Poly
 10
564
 20
334
 0
VERTEX
 8
Poly
 10
564
 20
336
 0
VERTEX
 8
Poly
 10
566
 20
336
 0
SEQEND
 8
Poly
 0
LINE
 8
Line
 10
566
 20
334
 11
564
 21
334
 0
LINE
 8
Line
 10
566
 20
336
 11
566
 21
334
 0
LINE
 8
Line
 10
687
 20
288
 11
667
 21
293
 0
LINE
 8
Line
 10
687
 20
286
 11
687
 21
288
 0
LINE
 8
Line
 10
681
 20
283
 11
682
 21
276
 0
LINE
 8
Line
 10
682
 20
276
 11
687
 21
271
 0
LINE
 8
Line
 10
1031
 20
262
 11
1030
 21
262
 0
LINE
 8
Line
 10
1027
 20
259
 11
1030
 21
262
 0
LINE
 8
Line
 10
1027
 20
258
 11
1027
 21
259
 0
LINE
 8
Line
 10
396
 20
224
 11
390
 21
215
 0
POLYLINE
 8
Poly
 66
 1
 0
VERTEX
 8
Poly
 10
490
 20
261
 0
VERTEX
 8
Poly
 10
467
 20
245
 0
VERTEX
 8
Poly
 10
470
 20
234
 0
SEQEND
 8
Poly
 0
POLYLINE
 8
Poly
 66
 1
 0
VERTEX
 8
Poly
 10
470
 20
234
 0
VERTEX
 8
Poly
 10
472
 20
234
 0
VERTEX
 8
Poly
 10
473
 20
233
 0
SEQEND
 8
Poly
 0
LINE
 8
Line
 10
505
 20
211
 11
509
 21
213
 0
LINE
 8
Line
 10
482
 20
213
 11
505
 21
211
 0
LINE
 8
Line
 10
392
 20
240
 11
394
 21
227
 0
POLYLINE
 8
Poly
 66
 1
 0
VERTEX
 8
Poly
 10
495
 20
259
 0
VERTEX
 8
Poly
 10
479
 20
255
 0
VERTEX
 8
Poly
 10
479
 20
254
 0
SEQEND
 8
Poly
 0
LINE
 8
Line
 10
504
 20
214
 11
504
 21
218
 0
LINE
 8
Line
 10
510
 20
247
 11
513
 21
247
 0
LINE
 8
Line
 10
513
 20
247
 11
513
 21
248
 0
POLYLINE
 8
Poly
 66
 1
 0
VERTEX
 8
Poly
 10
604
 20
258
 0
VERTEX
 8
Poly
 10
629
 20
253
 0
VERTEX
 8
Poly
 10
637
 20
222
 0
VERTEX
 8
Poly
 10
634
 20
219
 0
VERTEX
 8
Poly
 10
631
 20
219
 0
VERTEX
 8
Poly
 10
629
 20
216
 0
VERTEX
 8
Poly
 10
629
 20
213
 0
SEQEND
 8
Poly
 0
LINE
 8
Line
 10
586
 20
229
 11
588
 21
229
 0
POLYLINE
 8
Poly
 66
 1
 0
VERTEX
 8
Poly
 10
712
 20
251
 0
VERTEX
 8
Poly
 10
726
 20
256
 0
VERTEX
 8
Poly
 10
745
 20
251
 0
SEQEND
 8
Poly
 0
POLYLINE
 8
Poly
 66
 1
 0
VERTEX
 8
Poly
 10
755
 20
224
 0
VERTEX
 8
Poly
 10
753
 20
222
 0
VERTEX
 8
Poly
 10
751
 20
222
 0
SEQEND
 8
Poly
 0
LINE
 8
Line
 10
703
 20
223
 11
705
 21
223
 0
POLYLINE
 8
Poly
 66
 1
 0
VERTEX
 8
Poly
 10
705
 20
223
 0
VERTEX
 8
Poly
 10
708
 20
241
 0
VERTEX
 8
Poly
 10
709
 20
241
 0
SEQEND
 8
Poly
 0
POLYLINE
 8
Poly
 66
 1
 0
VERTEX
 8
Poly
 10
486
 20
250
 0
VERTEX
 8
Poly
 10
484
 20
250
 0
VERTEX
 8
Poly
 10
484
 20
255
 0
VERTEX
 8
Poly
 10
494
 20
254
 0
SEQEND
 8
Poly
 0
LINE
 8
Line
 10
494
 20
254
 11
494
 21
252
 0
POLYLINE
 8
Poly
 66
 1
 0
VERTEX
 8
Poly
 10
486
 20
250
 0
VERTEX
 8
Poly
 10
486
 20
252
 0
VERTEX
 8
Poly
 10
487
 20
253
 0
VERTEX
 8
Poly
 10
494
 20
252
 0
SEQEND
 8
Poly
 0
POLYLINE
 8
Poly
 66
 1
 0
VERTEX
 8
Poly
 10
615
 20
255
 0
VERTEX
 8
Poly
 10
614
 20
254
 0
VERTEX
 8
Poly
 10
614
 20
251
 0
SEQEND
 8
Poly
 0
LINE
 8
Line
 10
627
 20
251
 11
627
 21
248
 0
LINE
 8
Line
 10
614
 20
251
 11
612
 21
251
 0
LINE
 8
Line
 10
627
 20
248
 11
630
 21
248
 0
POLYLINE
 8
Poly
 66
 1
 0
VERTEX
 8
Poly
 10
635
 20
223
 0
VERTEX
 8
Poly
 10
634
 20
222
 0
VERTEX
 8
Poly
 10
631
 20
222
 0
VERTEX
 8
Poly
 10
631
 20
227
 0
SEQEND
 8
Poly
 0
POLYLINE
 8
Poly
 66
 1
 0
VERTEX
 8
Poly
 10
612
 20
251
 0
VERTEX
 8
Poly
 10
608
 20
253
 0
VERTEX
 8
Poly
 10
600
 20
250
 0
VERTEX
 8
Poly
 10
596
 20
245
 0
VERTEX
 8
Poly
 10
596
 20
243
 0
SEQEND
 8
Poly
 0
POLYLINE
 8
Poly
 66
 1
 0
VERTEX
 8
Poly
 10
631
 20
227
 0
VERTEX
 8
Poly
 10
621
 20
222
 0
VERTEX
 8
Poly
 10
618
 20
223
 0
SEQEND
 8
Poly
 0
LINE
 8
Line
 10
596
 20
243
 11
594
 21
243
 0
LINE
 8
Line
 10
618
 20
223
 11
623
 21
214
 0
POLYLINE
 8
Poly
 66
 1
 0
VERTEX
 8
Poly
 10
598
 20
214
 0
VERTEX
 8
Poly
 10
592
 20
222
 0
VERTEX
 8
Poly
 10
594
 20
227
 0
SEQEND
 8
Poly
 0
POLYLINE
 8
Poly
 66
 1
 0
VERTEX
 8
Poly
 10
594
 20
243
 0
VERTEX
 8
Poly
 10
590
 20
245
 0
VERTEX
 8
Poly
 10
589
 20
232
 0
VERTEX
 8
Poly
 10
592
 20
239
 0
SEQEND
 8
Poly
 0
LINE
 8
Line
 10
594
 20
239
 11
594
 21
227
 0
LINE
 8
Line
 10
592
 20
239
 11
594
 21
239
 0
LINE
 8
Line
 10
846
 20
254
 11
831
 21
251
 0
LINE
 8
Line
 10
871
 20
224
 11
867
 21
219
 0
POLYLINE
 8
Poly
 66
 1
 0
VERTEX
 8
Poly
 10
821
 20
219
 0
VERTEX
 8
Poly
 10
822
 20
218
 0
VERTEX
 8
Poly
 10
825
 20
218
 0
VERTEX
 8
Poly
 10
828
 20
214
 0
VERTEX
 8
Poly
 10
830
 20
209
 0
SEQEND
 8
Poly
 0
POLYLINE
 8
Poly
 66
 1
 0
VERTEX
 8
Poly
 10
867
 20
219
 0
VERTEX
 8
Poly
 10
866
 20
217
 0
VERTEX
 8
Poly
 10
869
 20
217
 0
SEQEND
 8
Poly
 0
LINE
 8
Line
 10
869
 20
215
 11
869
 21
217
 0
LINE
 8
Line
 10
833
 20
249
 11
833
 21
247
 0
POLYLINE
 8
Poly
 66
 1
 0
VERTEX
 8
Poly
 10
867
 20
238
 0
VERTEX
 8
Poly
 10
866
 20
237
 0
VERTEX
 8
Poly
 10
863
 20
237
 0
SEQEND
 8
Poly
 0
POLYLINE
 8
Poly
 66
 1
 0
VERTEX
 8
Poly
 10
833
 20
247
 0
VERTEX
 8
Poly
 10
830
 20
247
 0
VERTEX
 8
Poly
 10
829
 20
246
 0
SEQEND
 8
Poly
 0
LINE
 8
Line
 10
826
 20
221
 11
828
 21
221
 0
LINE
 8
Line
 10
863
 20
237
 11
863
 21
235
 0
LINE
 8
Line
 10
863
 20
235
 11
865
 21
230
 0
POLYLINE
 8
Poly
 66
 1
 0
VERTEX
 8
Poly
 10
864
 20
225
 0
VERTEX
 8
Poly
 10
868
 20
225
 0
VERTEX
 8
Poly
 10
871
 20
227
 0
VERTEX
 8
Poly
 10
871
 20
232
 0
VERTEX
 8
Poly
 10
869
 20
235
 0
VERTEX
 8
Poly
 10
867
 20
235
 0
VERTEX
 8
Poly
 10
867
 20
230
 0
VERTEX
 8
Poly
 10
865
 20
230
 0
SEQEND
 8
Poly
 0
LINE
 8
Line
 10
1060
 20
210
 11
1064
 21
206
 0
POLYLINE
 8
Poly
 66
 1
 0
VERTEX
 8
Poly
 10
479
 20
249
 0
VERTEX
 8
Poly
 10
479
 20
251
 0
VERTEX
 8
Poly
 10
481
 20
251
 0
SEQEND
 8
Poly
 0
LINE
 8
Line
 10
481
 20
249
 11
479
 21
249
 0
LINE
 8
Line
 10
481
 20
251
 11
481
 21
249
 0
POLYLINE
 8
Poly
 66
 1
 0
VERTEX
 8
Poly
 10
984
 20
217
 0
VERTEX
 8
Poly
 10
979
 20
212
 0
VERTEX
 8
Poly
 10
976
 20
204
 0
SEQEND
 8
Poly
 0
LINE
 8
Line
 10
1085
 20
249
 11
1085
 21
246
 0
LINE
 8
Line
 10
1085
 20
246
 11
1088
 21
246
 0
LINE
 8
Line
 10
1063
 20
218
 11
1067
 21
219
 0
LINE
 8
Line
 10
1096
 20
216
 11
1095
 21
225
 0
LINE
 8
Line
 10
1067
 20
219
 11
1063
 21
211
 0
LINE
 8
Line
 10
1095
 20
225
 11
1093
 21
225
 0
LINE
 8
Line
 10
1093
 20
225
 11
1089
 21
206
 0
LINE
 8
Line
 10
966
 20
248
 11
966
 21
246
 0
LINE
 8
Line
 10
941
 20
222
 11
949
 21
222
 0
LINE
 8
Line
 10
966
 20
246
 11
976
 21
247
 0
LINE
 8
Line
 10
949
 20
222
 11
949
 21
220
 0
LINE
 8
Line
 10
982
 20
240
 11
977
 21
240
 0
POLYLINE
 8
Poly
 66
 1
 0
VERTEX
 8
Poly
 10
949
 20
220
 0
VERTEX
 8
Poly
 10
945
 20
220
 0
VERTEX
 8
Poly
 10
945
 20
212
 0
VERTEX
 8
Poly
 10
951
 20
212
 0
SEQEND
 8
Poly
 0
LINE
 8
Line
 10
977
 20
240
 11
969
 21
228
 0
LINE
 8
Line
 10
951
 20
212
 11
951
 21
207
 0
POLYLINE
 8
Poly
 66
 1
 0
VERTEX
 8
Poly
 10
970
 20
204
 0
VERTEX
 8
Poly
 10
977
 20
210
 0
VERTEX
 8
Poly
 10
977
 20
214
 0
SEQEND
 8
Poly
 0
POLYLINE
 8
Poly
 66
 1
 0
VERTEX
 8
Poly
 10
969
 20
228
 0
VERTEX
 8
Poly
 10
980
 20
237
 0
VERTEX
 8
Poly
 10
981
 20
233
 0
SEQEND
 8
Poly
 0
LINE
 8
Line
 10
977
 20
214
 11
987
 21
223
 0
LINE
 8
Line
 10
981
 20
233
 11
983
 21
233
 0
POLYLINE
 8
Poly
 66
 1
 0
VERTEX
 8
Poly
 10
495
 20
240
 0
VERTEX
 8
Poly
 10
495
 20
248
 0
VERTEX
 8
Poly
 10
497
 20
248
 0
VERTEX
 8
Poly
 10
498
 20
247
 0
VERTEX
 8
Poly
 10
498
 20
241
 0
VERTEX
 8
Poly
 10
497
 20
240
 0
VERTEX
 8
Poly
 10
495
 20
240
 0
SEQEND
 8
Poly
 0
POLYLINE
 8
Poly
 66
 1
 0
VERTEX
 8
Poly
 10
476
 20
244
 0
VERTEX
 8
Poly
 10
476
 20
247
 0
VERTEX
 8
Poly
 10
478
 20
247
 0
SEQEND
 8
Poly
 0
LINE
 8
Line
 10
478
 20
244
 11
476
 21
244
 0
LINE
 8
Line
 10
478
 20
247
 11
478
 21
244
 0
POLYLINE
 8
Poly
 66
 1
 0
VERTEX
 8
Poly
 10
483
 20
242
 0
VERTEX
 8
Poly
 10
481
 20
247
 0
VERTEX
 8
Poly
 10
483
 20
247
 0
SEQEND
 8
Poly
 0
LINE
 8
Line
 10
485
 20
242
 11
483
 21
242
 0
LINE
 8
Line
 10
483
 20
247
 11
485
 21
242
 0
POLYLINE
 8
Poly
 66
 1
 0
VERTEX
 8
Poly
 10
623
 20
240
 0
VERTEX
 8
Poly
 10
621
 20
247
 0
VERTEX
 8
Poly
 10
626
 20
245
 0
SEQEND
 8
Poly
 0
LINE
 8
Line
 10
625
 20
240
 11
623
 21
240
 0
LINE
 8
Line
 10
626
 20
245
 11
625
 21
240
 0
POLYLINE
 8
Poly
 66
 1
 0
VERTEX
 8
Poly
 10
850
 20
234
 0
VERTEX
 8
Poly
 10
851
 20
247
 0
VERTEX
 8
Poly
 10
853
 20
247
 0
SEQEND
 8
Poly
 0
LINE
 8
Line
 10
852
 20
234
 11
850
 21
234
 0
LINE
 8
Line
 10
853
 20
247
 11
852
 21
234
 0
POLYLINE
 8
Poly
 66
 1
 0
VERTEX
 8
Poly
 10
837
 20
239
 0
VERTEX
 8
Poly
 10
837
 20
245
 0
VERTEX
 8
Poly
 10
839
 20
245
 0
SEQEND
 8
Poly
 0
LINE
 8
Line
 10
839
 20
239
 11
837
 21
239
 0
LINE
 8
Line
 10
839
 20
245
 11
839
 21
239
 0
POLYLINE
 8
Poly
 66
 1
 0
VERTEX
 8
Poly
 10
608
 20
242
 0
VERTEX
 8
Poly
 10
608
 20
244
 0
VERTEX
 8
Poly
 10
610
 20
244
 0
SEQEND
 8
Poly
 0
LINE
 8
Line
 10
610
 20
242
 11
608
 21
242
 0
LINE
 8
Line
 10
610
 20
244
 11
610
 21
242
 0
POLYLINE
 8
Poly
 66
 1
 0
VERTEX
 8
Poly
 10
973
 20
242
 0
VERTEX
 8
Poly
 10
973
 20
244
 0
VERTEX
 8
Poly
 10
975
 20
244
 0
SEQEND
 8
Poly
 0
LINE
 8
Line
 10
975
 20
242
 11
973
 21
242
 0
LINE
 8
Line
 10
975
 20
244
 11
975
 21
242
 0
POLYLINE
 8
Poly
 66
 1
 0
VERTEX
 8
Poly
 10
1093
 20
239
 0
VERTEX
 8
Poly
 10
1090
 20
244
 0
VERTEX
 8
Poly
 10
1095
 20
239
 0
VERTEX
 8
Poly
 10
1093
 20
239
 0
SEQEND
 8
Poly
 0
POLYLINE
 8
Poly
 66
 1
 0
VERTEX
 8
Poly
 10
382
 20
241
 0
VERTEX
 8
Poly
 10
382
 20
243
 0
VERTEX
 8
Poly
 10
384
 20
243
 0
SEQEND
 8
Poly
 0
LINE
 8
Line
 10
384
 20
241
 11
382
 21
241
 0
LINE
 8
Line
 10
384
 20
243
 11
384
 21
241
 0
POLYLINE
 8
Poly
 66
 1
 0
VERTEX
 8
Poly
 10
729
 20
239
 0
VERTEX
 8
Poly
 10
729
 20
241
 0
VERTEX
 8
Poly
 10
731
 20
242
 0
VERTEX
 8
Poly
 10
733
 20
242
 0
SEQEND
 8
Poly
 0
LINE
 8
Line
 10
733
 20
242
 11
735
 21
236
 0
LINE
 8
Line
 10
733
 20
236
 11
729
 21
239
 0
LINE
 8
Line
 10
735
 20
236
 11
733
 21
236
 0
POLYLINE
 8
Poly
 66
 1
 0
VERTEX
 8
Poly
 10
832
 20
240
 0
VERTEX
 8
Poly
 10
832
 20
242
 0
VERTEX
 8
Poly
 10
834
 20
242
 0
SEQEND
 8
Poly
 0
LINE
 8
Line
 10
834
 20
240
 11
832
 21
240
 0
LINE
 8
Line
 10
834
 20
242
 11
834
 21
240
 0
POLYLINE
 8
Poly
 66
 1
 0
VERTEX
 8
Poly
 10
711
 20
228
 0
VERTEX
 8
Poly
 10
709
 20
228
 0
VERTEX
 8
Poly
 10
713
 20
240
 0
VERTEX
 8
Poly
 10
718
 20
238
 0
SEQEND
 8
Poly
 0
LINE
 8
Line
 10
718
 20
238
 11
718
 21
236
 0
POLYLINE
 8
Poly
 66
 1
 0
VERTEX
 8
Poly
 10
711
 20
228
 0
VERTEX
 8
Poly
 10
712
 20
236
 0
VERTEX
 8
Poly
 10
718
 20
236
 0
SEQEND
 8
Poly
 0
POLYLINE
 8
Poly
 66
 1
 0
VERTEX
 8
Poly
 10
1070
 20
238
 0
VERTEX
 8
Poly
 10
1070
 20
240
 0
VERTEX
 8
Poly
 10
1072
 20
240
 0
SEQEND
 8
Poly
 0
LINE
 8
Line
 10
1072
 20
238
 11
1070
 21
238
 0
LINE
 8
Line
 10
1072
 20
240
 11
1072
 21
238
 0
POLYLINE
 8
Poly
 66
 1
 0
VERTEX
 8
Poly
 10
1081
 20
236
 0
VERTEX
 8
Poly
 10
1081
 20
238
 0
VERTEX
 8
Poly
 10
1084
 20
238
 0
SEQEND
 8
Poly
 0
LINE
 8
Line
 10
1084
 20
236
 11
1081
 21
236
 0
LINE
 8
Line
 10
1084
 20
238
 11
1084
 21
236
 0
POLYLINE
 8
Poly
 66
 1
 0
VERTEX
 8
Poly
 10
389
 20
234
 0
VERTEX
 8
Poly
 10
389
 20
236
 0
VERTEX
 8
Poly
 10
391
 20
236
 0
SEQEND
 8
Poly
 0
LINE
 8
Line
 10
391
 20
234
 11
389
 21
234
 0
LINE
 8
Line
 10
391
 20
236
 11
391
 21
234
 0
POLYLINE
 8
Poly
 66
 1
 0
VERTEX
 8
Poly
 10
493
 20
233
 0
VERTEX
 8
Poly
 10
493
 20
236
 0
VERTEX
 8
Poly
 10
495
 20
236
 0
SEQEND
 8
Poly
 0
LINE
 8
Line
 10
495
 20
233
 11
493
 21
233
 0
LINE
 8
Line
 10
495
 20
236
 11
495
 21
233
 0
POLYLINE
 8
Poly
 66
 1
 0
VERTEX
 8
Poly
 10
604
 20
234
 0
VERTEX
 8
Poly
 10
604
 20
236
 0
VERTEX
 8
Poly
 10
606
 20
236
 0
SEQEND
 8
Poly
 0
LINE
 8
Line
 10
606
 20
234
 11
604
 21
234
 0
LINE
 8
Line
 10
606
 20
236
 11
606
 21
234
 0
POLYLINE
 8
Poly
 66
 1
 0
VERTEX
 8
Poly
 10
1080
 20
225
 0
VERTEX
 8
Poly
 10
1080
 20
227
 0
VERTEX
 8
Poly
 10
1095
 20
235
 0
VERTEX
 8
Poly
 10
1099
 20
234
 0
SEQEND
 8
Poly
 0
LINE
 8
Line
 10
1099
 20
232
 11
1099
 21
234
 0
LINE
 8
Line
 10
1080
 20
225
 11
1099
 21
232
 0
POLYLINE
 8
Poly
 66
 1
 0
VERTEX
 8
Poly
 10
620
 20
234
 0
VERTEX
 8
Poly
 10
618
 20
234
 0
VERTEX
 8
Poly
 10
610
 20
217
 0
SEQEND
 8
Poly
 0
LINE
 8
Line
 10
616
 20
218
 11
619
 21
218
 0
LINE
 8
Line
 10
610
 20
217
 11
610
 21
215
 0
LINE
 8
Line
 10
619
 20
216
 11
619
 21
218
 0
LINE
 8
Line
 10
610
 20
215
 11
619
 21
216
 0
POLYLINE
 8
Poly
 66
 1
 0
VERTEX
 8
Poly
 10
1077
 20
232
 0
VERTEX
 8
Poly
 10
1077
 20
234
 0
VERTEX
 8
Poly
 10
1079
 20
234
 0
SEQEND
 8
Poly
 0
LINE
 8
Line
 10
1079
 20
232
 11
1077
 21
232
 0
LINE
 8
Line
 10
1079
 20
234
 11
1079
 21
232
 0
POLYLINE
 8
Poly
 66
 1
 0
VERTEX
 8
Poly
 10
514
 20
231
 0
VERTEX
 8
Poly
 10
514
 20
233
 0
VERTEX
 8
Poly
 10
516
 20
233
 0
SEQEND
 8
Poly
 0
LINE
 8
Line
 10
516
 20
231
 11
514
 21
231
 0
LINE
 8
Line
 10
516
 20
233
 11
516
 21
231
 0
POLYLINE
 8
Poly
 66
 1
 0
VERTEX
 8
Poly
 10
738
 20
229
 0
VERTEX
 8
Poly
 10
737
 20
233
 0
VERTEX
 8
Poly
 10
739
 20
233
 0
SEQEND
 8
Poly
 0
LINE
 8
Line
 10
740
 20
229
 11
738
 21
229
 0
LINE
 8
Line
 10
739
 20
233
 11
740
 21
229
 0
POLYLINE
 8
Poly
 66
 1
 0
VERTEX
 8
Poly
 10
747
 20
231
 0
VERTEX
 8
Poly
 10
747
 20
233
 0
VERTEX
 8
Poly
 10
749
 20
233
 0
SEQEND
 8
Poly
 0
LINE
 8
Line
 10
749
 20
231
 11
747
 21
231
 0
LINE
 8
Line
 10
749
 20
233
 11
749
 21
231
 0
POLYLINE
 8
Poly
 66
 1
 0
VERTEX
 8
Poly
 10
381
 20
230
 0
VERTEX
 8
Poly
 10
381
 20
232
 0
VERTEX
 8
Poly
 10
383
 20
232
 0
SEQEND
 8
Poly
 0
LINE
 8
Line
 10
383
 20
230
 11
381
 21
230
 0
LINE
 8
Line
 10
383
 20
232
 11
383
 21
230
 0
POLYLINE
 8
Poly
 66
 1
 0
VERTEX
 8
Poly
 10
602
 20
229
 0
VERTEX
 8
Poly
 10
602
 20
231
 0
VERTEX
 8
Poly
 10
604
 20
231
 0
SEQEND
 8
Poly
 0
LINE
 8
Line
 10
604
 20
229
 11
602
 21
229
 0
LINE
 8
Line
 10
604
 20
231
 11
604
 21
229
 0
POLYLINE
 8
Poly
 66
 1
 0
VERTEX
 8
Poly
 10
948
 20
228
 0
VERTEX
 8
Poly
 10
948
 20
230
 0
VERTEX
 8
Poly
 10
950
 20
230
 0
SEQEND
 8
Poly
 0
LINE
 8
Line
 10
950
 20
228
 11
948
 21
228
 0
LINE
 8
Line
 10
950
 20
230
 11
950
 21
228
 0
POLYLINE
 8
Poly
 66
 1
 0
VERTEX
 8
Poly
 10
497
 20
227
 0
VERTEX
 8
Poly
 10
497
 20
229
 0
VERTEX
 8
Poly
 10
499
 20
229
 0
SEQEND
 8
Poly
 0
LINE
 8
Line
 10
499
 20
227
 11
497
 21
227
 0
LINE
 8
Line
 10
499
 20
229
 11
499
 21
227
 0
POLYLINE
 8
Poly
 66
 1
 0
VERTEX
 8
Poly
 10
747
 20
227
 0
VERTEX
 8
Poly
 10
747
 20
229
 0
VERTEX
 8
Poly
 10
749
 20
229
 0
SEQEND
 8
Poly
 0
LINE
 8
Line
 10
749
 20
227
 11
747
 21
227
 0
LINE
 8
Line
 10
749
 20
229
 11
749
 21
227
 0
POLYLINE
 8
Poly
 66
 1
 0
VERTEX
 8
Poly
 10
1068
 20
227
 0
VERTEX
 8
Poly
 10
1068
 20
229
 0
VERTEX
 8
Poly
 10
1070
 20
229
 0
SEQEND
 8
Poly
 0
LINE
 8
Line
 10
1070
 20
227
 11
1068
 21
227
 0
LINE
 8
Line
 10
1070
 20
229
 11
1070
 21
227
 0
POLYLINE
 8
Poly
 66
 1
 0
VERTEX
 8
Poly
 10
477
 20
226
 0
VERTEX
 8
Poly
 10
477
 20
228
 0
VERTEX
 8
Poly
 10
479
 20
228
 0
SEQEND
 8
Poly
 0
LINE
 8
Line
 10
479
 20
226
 11
477
 21
226
 0
LINE
 8
Line
 10
479
 20
228
 11
479
 21
226
 0
POLYLINE
 8
Poly
 66
 1
 0
VERTEX
 8
Poly
 10
514
 20
228
 0
VERTEX
 8
Poly
 10
511
 20
228
 0
VERTEX
 8
Poly
 10
509
 20
225
 0
VERTEX
 8
Poly
 10
509
 20
223
 0
SEQEND
 8
Poly
 0
LINE
 8
Line
 10
514
 20
226
 11
509
 21
223
 0
LINE
 8
Line
 10
514
 20
228
 11
514
 21
226
 0
POLYLINE
 8
Poly
 66
 1
 0
VERTEX
 8
Poly
 10
846
 20
226
 0
VERTEX
 8
Poly
 10
846
 20
228
 0
VERTEX
 8
Poly
 10
848
 20
228
 0
SEQEND
 8
Poly
 0
LINE
 8
Line
 10
848
 20
226
 11
846
 21
226
 0
LINE
 8
Line
 10
848
 20
228
 11
848
 21
226
 0
POLYLINE
 8
Poly
 66
 1
 0
VERTEX
 8
Poly
 10
1098
 20
225
 0
VERTEX
 8
Poly
 10
1098
 20
228
 0
VERTEX
 8
Poly
 10
1100
 20
228
 0
SEQEND
 8
Poly
 0
LINE
 8
Line
 10
1100
 20
225
 11
1098
 21
225
 0
LINE
 8
Line
 10
1100
 20
228
 11
1100
 21
225
 0
POLYLINE
 8
Poly
 66
 1
 0
VERTEX
 8
Poly
 10
602
 20
227
 0
VERTEX
 8
Poly
 10
600
 20
227
 0
VERTEX
 8
Poly
 10
600
 20
225
 0
VERTEX
 8
Poly
 10
594
 20
225
 0
SEQEND
 8
Poly
 0
LINE
 8
Line
 10
594
 20
225
 11
594
 21
223
 0
POLYLINE
 8
Poly
 66
 1
 0
VERTEX
 8
Poly
 10
602
 20
227
 0
VERTEX
 8
Poly
 10
602
 20
224
 0
VERTEX
 8
Poly
 10
605
 20
221
 0
VERTEX
 8
Poly
 10
607
 20
221
 0
SEQEND
 8
Poly
 0
LINE
 8
Line
 10
607
 20
219
 11
594
 21
223
 0
LINE
 8
Line
 10
607
 20
221
 11
607
 21
219
 0
POLYLINE
 8
Poly
 66
 1
 0
VERTEX
 8
Poly
 10
710
 20
224
 0
VERTEX
 8
Poly
 10
710
 20
226
 0
VERTEX
 8
Poly
 10
712
 20
226
 0
SEQEND
 8
Poly
 0
LINE
 8
Line
 10
712
 20
224
 11
710
 21
224
 0
LINE
 8
Line
 10
712
 20
226
 11
712
 21
224
 0
POLYLINE
 8
Poly
 66
 1
 0
VERTEX
 8
Poly
 10
744
 20
222
 0
VERTEX
 8
Poly
 10
744
 20
225
 0
VERTEX
 8
Poly
 10
747
 20
222
 0
VERTEX
 8
Poly
 10
744
 20
222
 0
SEQEND
 8
Poly
 0
POLYLINE
 8
Poly
 66
 1
 0
VERTEX
 8
Poly
 10
496
 20
224
 0
VERTEX
 8
Poly
 10
494
 20
224
 0
VERTEX
 8
Poly
 10
494
 20
220
 0
VERTEX
 8
Poly
 10
493
 20
219
 0
VERTEX
 8
Poly
 10
483
 20
221
 0
SEQEND
 8
Poly
 0
LINE
 8
Line
 10
483
 20
221
 11
483
 21
219
 0
LINE
 8
Line
 10
496
 20
224
 11
500
 21
217
 0
POLYLINE
 8
Poly
 66
 1
 0
VERTEX
 8
Poly
 10
483
 20
219
 0
VERTEX
 8
Poly
 10
499
 20
217
 0
VERTEX
 8
Poly
 10
500
 20
217
 0
SEQEND
 8
Poly
 0
LINE
 8
Line
 10
390
 20
223
 11
391
 21
220
 0
LINE
 8
Line
 10
390
 20
223
 11
388
 21
220
 0
POLYLINE
 8
Poly
 66
 1
 0
VERTEX
 8
Poly
 10
385
 20
218
 0
VERTEX
 8
Poly
 10
373
 20
217
 0
VERTEX
 8
Poly
 10
373
 20
216
 0
VERTEX
 8
Poly
 10
372
 20
216
 0
SEQEND
 8
Poly
 0
LINE
 8
Line
 10
373
 20
217
 11
385
 21
218
 0
POLYLINE
 8
Poly
 66
 1
 0
VERTEX
 8
Poly
 10
963
 20
220
 0
VERTEX
 8
Poly
 10
963
 20
222
 0
VERTEX
 8
Poly
 10
965
 20
222
 0
SEQEND
 8
Poly
 0
LINE
 8
Line
 10
965
 20
220
 11
963
 21
220
 0
LINE
 8
Line
 10
965
 20
222
 11
965
 21
220
 0
POLYLINE
 8
Poly
 66
 1
 0
VERTEX
 8
Poly
 10
738
 20
220
 0
VERTEX
 8
Poly
 10
729
 20
221
 0
VERTEX
 8
Poly
 10
731
 20
215
 0
VERTEX
 8
Poly
 10
730
 20
214
 0
VERTEX
 8
Poly
 10
716
 20
217
 0
SEQEND
 8
Poly
 0
LINE
 8
Line
 10
716
 20
217
 11
716
 21
215
 0
POLYLINE
 8
Poly
 66
 1
 0
VERTEX
 8
Poly
 10
738
 20
220
 0
VERTEX
 8
Poly
 10
739
 20
218
 0
VERTEX
 8
Poly
 10
734
 20
211
 0
VERTEX
 8
Poly
 10
721
 20
212
 0
VERTEX
 8
Poly
 10
716
 20
215
 0
SEQEND
 8
Poly
 0
POLYLINE
 8
Poly
 66
 1
 0
VERTEX
 8
Poly
 10
836
 20
212
 0
VERTEX
 8
Poly
 10
836
 20
219
 0
VERTEX
 8
Poly
 10
838
 20
219
 0
SEQEND
 8
Poly
 0
LINE
 8
Line
 10
838
 20
212
 11
836
 21
212
 0
LINE
 8
Line
 10
838
 20
219
 11
838
 21
212
 0
POLYLINE
 8
Poly
 66
 1
 0
VERTEX
 8
Poly
 10
464
 20
218
 0
VERTEX
 8
Poly
 10
463
 20
181
 0
VERTEX
 8
Poly
 10
466
 20
181
 0
VERTEX
 8
Poly
 10
527
 20
180
 0
SEQEND
 8
Poly
 0
POLYLINE
 8
Poly
 66
 1
 0
VERTEX
 8
Poly
 10
515
 20
206
 0
VERTEX
 8
Poly
 10
526
 20
217
 0
VERTEX
 8
Poly
 10
527
 20
217
 0
VERTEX
 8
Poly
 10
527
 20
180
 0
SEQEND
 8
Poly
 0
POLYLINE
 8
Poly
 66
 1
 0
VERTEX
 8
Poly
 10
948
 20
215
 0
VERTEX
 8
Poly
 10
948
 20
218
 0
VERTEX
 8
Poly
 10
951
 20
215
 0
VERTEX
 8
Poly
 10
948
 20
215
 0
SEQEND
 8
Poly
 0
LINE
 8
Line
 10
708
 20
217
 11
708
 21
212
 0
LINE
 8
Line
 10
708
 20
217
 11
710
 21
217
 0
LINE
 8
Line
 10
737
 20
204
 11
737
 21
206
 0
LINE
 8
Line
 10
710
 20
217
 11
710
 21
214
 0
POLYLINE
 8
Poly
 66
 1
 0
VERTEX
 8
Poly
 10
742
 20
215
 0
VERTEX
 8
Poly
 10
742
 20
217
 0
VERTEX
 8
Poly
 10
744
 20
217
 0
SEQEND
 8
Poly
 0
LINE
 8
Line
 10
744
 20
215
 11
742
 21
215
 0
LINE
 8
Line
 10
744
 20
217
 11
744
 21
215
 0
POLYLINE
 8
Poly
 66
 1
 0
VERTEX
 8
Poly
 10
1069
 20
215
 0
VERTEX
 8
Poly
 10
1069
 20
217
 0
VERTEX
 8
Poly
 10
1071
 20
217
 0
SEQEND
 8
Poly
 0
LINE
 8
Line
 10
1071
 20
215
 11
1069
 21
215
 0
LINE
 8
Line
 10
1071
 20
217
 11
1071
 21
215
 0
POLYLINE
 8
Poly
 66
 1
 0
VERTEX
 8
Poly
 10
1081
 20
212
 0
VERTEX
 8
Poly
 10
1081
 20
214
 0
VERTEX
 8
Poly
 10
1085
 20
216
 0
VERTEX
 8
Poly
 10
1089
 20
216
 0
SEQEND
 8
Poly
 0
LINE
 8
Line
 10
1089
 20
214
 11
1089
 21
216
 0
LINE
 8
Line
 10
1081
 20
212
 11
1089
 21
214
 0
POLYLINE
 8
Poly
 66
 1
 0
VERTEX
 8
Poly
 10
954
 20
209
 0
VERTEX
 8
Poly
 10
956
 20
214
 0
VERTEX
 8
Poly
 10
958
 20
214
 0
VERTEX
 8
Poly
 10
954
 20
209
 0
SEQEND
 8
Poly
 0
POLYLINE
 8
Poly
 66
 1
 0
VERTEX
 8
Poly
 10
850
 20
210
 0
VERTEX
 8
Poly
 10
850
 20
213
 0
VERTEX
 8
Poly
 10
857
 20
213
 0
SEQEND
 8
Poly
 0
LINE
 8
Line
 10
857
 20
211
 11
850
 21
210
 0
LINE
 8
Line
 10
857
 20
213
 11
857
 21
211
 0
POLYLINE
 8
Poly
 66
 1
 0
VERTEX
 8
Poly
 10
967
 20
209
 0
VERTEX
 8
Poly
 10
967
 20
212
 0
VERTEX
 8
Poly
 10
969
 20
213
 0
VERTEX
 8
Poly
 10
973
 20
213
 0
SEQEND
 8
Poly
 0
LINE
 8
Line
 10
973
 20
211
 11
973
 21
213
 0
LINE
 8
Line
 10
967
 20
209
 11
973
 21
211
 0
POLYLINE
 8
Poly
 66
 1
 0
VERTEX
 8
Poly
 10
694
 20
197
 0
VERTEX
 8
Poly
 10
694
 20
199
 0
VERTEX
 8
Poly
 10
696
 20
199
 0
SEQEND
 8
Poly
 0
LINE
 8
Line
 10
696
 20
197
 11
694
 21
197
 0
LINE
 8
Line
 10
696
 20
199
 11
696
 21
197
 0
POLYLINE
 8
Poly
 66
 1
 0
VERTEX
 8
Poly
 10
514
 20
184
 0
VERTEX
 8
Poly
 10
514
 20
186
 0
VERTEX
 8
Poly
 10
516
 20
186
 0
SEQEND
 8
Poly
 0
LINE
 8
Line
 10
516
 20
184
 11
514
 21
184
 0
LINE
 8
Line
 10
516
 20
186
 11
516
 21
184
 0
POLYLINE
 8
Poly
 66
 1
 0
VERTEX
 8
Poly
 10
407
 20
180
 0
VERTEX
 8
Poly
 10
400
 20
183
 0
VERTEX
 8
Poly
 10
394
 20
180
 0
VERTEX
 8
Poly
 10
365
 20
182
 0
SEQEND
 8
Poly
 0
LINE
 8
Line
 10
407
 20
180
 11
409
 21
175
 0
LINE
 8
Line
 10
409
 20
175
 11
382
 21
177
 0
POLYLINE
 8
Poly
 66
 1
 0
VERTEX
 8
Poly
 10
382
 20
177
 0
VERTEX
 8
Poly
 10
379
 20
179
 0
VERTEX
 8
Poly
 10
375
 20
175
 0
SEQEND
 8
Poly
 0
POLYLINE
 8
Poly
 66
 1
 0
VERTEX
 8
Poly
 10
717
 20
181
 0
VERTEX
 8
Poly
 10
717
 20
183
 0
VERTEX
 8
Poly
 10
719
 20
183
 0
SEQEND
 8
Poly
 0
LINE
 8
Line
 10
719
 20
181
 11
717
 21
181
 0
LINE
 8
Line
 10
719
 20
183
 11
719
 21
181
 0
POLYLINE
 8
Poly
 66
 1
 0
VERTEX
 8
Poly
 10
757
 20
181
 0
VERTEX
 8
Poly
 10
757
 20
183
 0
VERTEX
 8
Poly
 10
759
 20
183
 0
SEQEND
 8
Poly
 0
LINE
 8
Line
 10
759
 20
181
 11
757
 21
181
 0
LINE
 8
Line
 10
759
 20
183
 11
759
 21
181
 0
POLYLINE
 8
Poly
 66
 1
 0
VERTEX
 8
Poly
 10
743
 20
180
 0
VERTEX
 8
Poly
 10
743
 20
182
 0
VERTEX
 8
Poly
 10
746
 20
182
 0
SEQEND
 8
Poly
 0
LINE
 8
Line
 10
746
 20
180
 11
743
 21
180
 0
LINE
 8
Line
 10
746
 20
182
 11
746
 21
180
 0
LINE
 8
Line
 10
467
 20
179
 11
467
 21
177
 0
LINE
 8
Line
 10
485
 20
175
 11
485
 21
178
 0
LINE
 8
Line
 10
707
 20
179
 11
697
 21
178
 0
POLYLINE
 8
Poly
 66
 1
 0
VERTEX
 8
Poly
 10
697
 20
178
 0
VERTEX
 8
Poly
 10
696
 20
176
 0
VERTEX
 8
Poly
 10
697
 20
170
 0
SEQEND
 8
Poly
 0
POLYLINE
 8
Poly
 66
 1
 0
VERTEX
 8
Poly
 10
762
 20
178
 0
VERTEX
 8
Poly
 10
762
 20
171
 0
VERTEX
 8
Poly
 10
759
 20
168
 0
VERTEX
 8
Poly
 10
726
 20
168
 0
VERTEX
 8
Poly
 10
697
 20
170
 0
SEQEND
 8
Poly
 0
POLYLINE
 8
Poly
 66
 1
 0
VERTEX
 8
Poly
 10
489
 20
178
 0
VERTEX
 8
Poly
 10
488
 20
177
 0
VERTEX
 8
Poly
 10
488
 20
175
 0
VERTEX
 8
Poly
 10
521
 20
175
 0
VERTEX
 8
Poly
 10
521
 20
176
 0
SEQEND
 8
Poly
 0
POLYLINE
 8
Poly
 66
 1
 0
VERTEX
 8
Poly
 10
489
 20
178
 0
VERTEX
 8
Poly
 10
525
 20
178
 0
VERTEX
 8
Poly
 10
525
 20
176
 0
VERTEX
 8
Poly
 10
521
 20
176
 0
SEQEND
 8
Poly
 0
LINE
 8
Line
 10
821
 20
176
 11
821
 21
177
 0
LINE
 8
Line
 10
866
 20
178
 11
868
 21
178
 0
LINE
 8
Line
 10
821
 20
177
 11
810
 21
176
 0
POLYLINE
 8
Poly
 66
 1
 0
VERTEX
 8
Poly
 10
868
 20
178
 0
VERTEX
 8
Poly
 10
868
 20
176
 0
VERTEX
 8
Poly
 10
869
 20
175
 0
VERTEX
 8
Poly
 10
875
 20
175
 0
VERTEX
 8
Poly
 10
878
 20
173
 0
VERTEX
 8
Poly
 10
878
 20
171
 0
VERTEX
 8
Poly
 10
876
 20
169
 0
VERTEX
 8
Poly
 10
864
 20
170
 0
VERTEX
 8
Poly
 10
863
 20
167
 0
SEQEND
 8
Poly
 0
POLYLINE
 8
Poly
 66
 1
 0
VERTEX
 8
Poly
 10
810
 20
176
 0
VERTEX
 8
Poly
 10
810
 20
171
 0
VERTEX
 8
Poly
 10
814
 20
167
 0
VERTEX
 8
Poly
 10
822
 20
167
 0
SEQEND
 8
Poly
 0
LINE
 8
Line
 10
863
 20
167
 11
854
 21
168
 0
POLYLINE
 8
Poly
 66
 1
 0
VERTEX
 8
Poly
 10
822
 20
167
 0
VERTEX
 8
Poly
 10
826
 20
169
 0
VERTEX
 8
Poly
 10
847
 20
168
 0
SEQEND
 8
Poly
 0
POLYLINE
 8
Poly
 66
 1
 0
VERTEX
 8
Poly
 10
854
 20
168
 0
VERTEX
 8
Poly
 10
854
 20
171
 0
VERTEX
 8
Poly
 10
853
 20
172
 0
VERTEX
 8
Poly
 10
846
 20
173
 0
VERTEX
 8
Poly
 10
845
 20
172
 0
VERTEX
 8
Poly
 10
847
 20
170
 0
VERTEX
 8
Poly
 10
847
 20
168
 0
SEQEND
 8
Poly
 0
POLYLINE
 8
Poly
 66
 1
 0
VERTEX
 8
Poly
 10
591
 20
177
 0
VERTEX
 8
Poly
 10
589
 20
175
 0
VERTEX
 8
Poly
 10
589
 20
173
 0
VERTEX
 8
Poly
 10
590
 20
172
 0
VERTEX
 8
Poly
 10
594
 20
172
 0
VERTEX
 8
Poly
 10
595
 20
173
 0
VERTEX
 8
Poly
 10
595
 20
176
 0
VERTEX
 8
Poly
 10
594
 20
177
 0
VERTEX
 8
Poly
 10
591
 20
177
 0
SEQEND
 8
Poly
 0
POLYLINE
 8
Poly
 66
 1
 0
VERTEX
 8
Poly
 10
607
 20
177
 0
VERTEX
 8
Poly
 10
604
 20
174
 0
VERTEX
 8
Poly
 10
619
 20
174
 0
SEQEND
 8
Poly
 0
POLYLINE
 8
Poly
 66
 1
 0
VERTEX
 8
Poly
 10
607
 20
177
 0
VERTEX
 8
Poly
 10
618
 20
176
 0
VERTEX
 8
Poly
 10
619
 20
174
 0
SEQEND
 8
Poly
 0
POLYLINE
 8
Poly
 66
 1
 0
VERTEX
 8
Poly
 10
623
 20
175
 0
VERTEX
 8
Poly
 10
633
 20
177
 0
VERTEX
 8
Poly
 10
640
 20
177
 0
VERTEX
 8
Poly
 10
642
 20
175
 0
VERTEX
 8
Poly
 10
642
 20
173
 0
SEQEND
 8
Poly
 0
POLYLINE
 8
Poly
 66
 1
 0
VERTEX
 8
Poly
 10
623
 20
175
 0
VERTEX
 8
Poly
 10
623
 20
174
 0
VERTEX
 8
Poly
 10
622
 20
174
 0
SEQEND
 8
Poly
 0
POLYLINE
 8
Poly
 66
 1
 0
VERTEX
 8
Poly
 10
730
 20
173
 0
VERTEX
 8
Poly
 10
708
 20
177
 0
VERTEX
 8
Poly
 10
699
 20
173
 0
VERTEX
 8
Poly
 10
701
 20
173
 0
SEQEND
 8
Poly
 0
POLYLINE
 8
Poly
 66
 1
 0
VERTEX
 8
Poly
 10
701
 20
173
 0
VERTEX
 8
Poly
 10
707
 20
170
 0
VERTEX
 8
Poly
 10
757
 20
170
 0
VERTEX
 8
Poly
 10
760
 20
172
 0
VERTEX
 8
Poly
 10
760
 20
175
 0
VERTEX
 8
Poly
 10
759
 20
176
 0
VERTEX
 8
Poly
 10
730
 20
174
 0
VERTEX
 8
Poly
 10
730
 20
173
 0
SEQEND
 8
Poly
 0
POLYLINE
 8
Poly
 66
 1
 0
VERTEX
 8
Poly
 10
815
 20
175
 0
VERTEX
 8
Poly
 10
813
 20
173
 0
VERTEX
 8
Poly
 10
813
 20
171
 0
VERTEX
 8
Poly
 10
814
 20
170
 0
VERTEX
 8
Poly
 10
818
 20
170
 0
VERTEX
 8
Poly
 10
819
 20
171
 0
VERTEX
 8
Poly
 10
819
 20
174
 0
VERTEX
 8
Poly
 10
818
 20
175
 0
VERTEX
 8
Poly
 10
815
 20
175
 0
SEQEND
 8
Poly
 0
POLYLINE
 8
Poly
 66
 1
 0
VERTEX
 8
Poly
 10
1093
 20
173
 0
VERTEX
 8
Poly
 10
1093
 20
175
 0
VERTEX
 8
Poly
 10
1095
 20
175
 0
SEQEND
 8
Poly
 0
LINE
 8
Line
 10
1095
 20
173
 11
1093
 21
173
 0
LINE
 8
Line
 10
1095
 20
175
 11
1095
 21
173
 0
POLYLINE
 8
Poly
 66
 1
 0
VERTEX
 8
Poly
 10
932
 20
174
 0
VERTEX
 8
Poly
 10
929
 20
174
 0
VERTEX
 8
Poly
 10
925
 20
170
 0
VERTEX
 8
Poly
 10
925
 20
168
 0
SEQEND
 8
Poly
 0
LINE
 8
Line
 10
932
 20
172
 11
925
 21
168
 0
LINE
 8
Line
 10
932
 20
174
 11
932
 21
172
 0
POLYLINE
 8
Poly
 66
 1
 0
VERTEX
 8
Poly
 10
976
 20
167
 0
VERTEX
 8
Poly
 10
976
 20
173
 0
VERTEX
 8
Poly
 10
981
 20
174
 0
VERTEX
 8
Poly
 10
991
 20
173
 0
SEQEND
 8
Poly
 0
LINE
 8
Line
 10
991
 20
173
 11
991
 21
168
 0
LINE
 8
Line
 10
976
 20
167
 11
978
 21
167
 0
LINE
 8
Line
 10
991
 20
168
 11
989
 21
168
 0
POLYLINE
 8
Poly
 66
 1
 0
VERTEX
 8
Poly
 10
978
 20
167
 0
VERTEX
 8
Poly
 10
984
 20
172
 0
VERTEX
 8
Poly
 10
985
 20
166
 0
SEQEND
 8
Poly
 0
POLYLINE
 8
Poly
 66
 1
 0
VERTEX
 8
Poly
 10
989
 20
168
 0
VERTEX
 8
Poly
 10
987
 20
170
 0
VERTEX
 8
Poly
 10
987
 20
166
 0
VERTEX
 8
Poly
 10
985
 20
166
 0
SEQEND
 8
Poly
 0
POLYLINE
 8
Poly
 66
 1
 0
VERTEX
 8
Poly
 10
1044
 20
171
 0
VERTEX
 8
Poly
 10
1044
 20
174
 0
VERTEX
 8
Poly
 10
1047
 20
174
 0
VERTEX
 8
Poly
 10
1044
 20
171
 0
SEQEND
 8
Poly
 0
POLYLINE
 8
Poly
 66
 1
 0
VERTEX
 8
Poly
 10
835
 20
173
 0
VERTEX
 8
Poly
 10
836
 20
170
 0
VERTEX
 8
Poly
 10
839
 20
172
 0
VERTEX
 8
Poly
 10
835
 20
173
 0
SEQEND
 8
Poly
 0
POLYLINE
 8
Poly
 66
 1
 0
VERTEX
 8
Poly
 10
857
 20
173
 0
VERTEX
 8
Poly
 10
857
 20
170
 0
VERTEX
 8
Poly
 10
858
 20
169
 0
VERTEX
 8
Poly
 10
861
 20
169
 0
VERTEX
 8
Poly
 10
861
 20
171
 0
VERTEX
 8
Poly
 10
860
 20
173
 0
VERTEX
 8
Poly
 10
857
 20
173
 0
SEQEND
 8
Poly
 0
POLYLINE
 8
Poly
 66
 1
 0
VERTEX
 8
Poly
 10
935
 20
171
 0
VERTEX
 8
Poly
 10
935
 20
173
 0
VERTEX
 8
Poly
 10
937
 20
173
 0
SEQEND
 8
Poly
 0
LINE
 8
Line
 10
937
 20
171
 11
935
 21
171
 0
LINE
 8
Line
 10
937
 20
173
 11
937
 21
171
 0
POLYLINE
 8
Poly
 66
 1
 0
VERTEX
 8
Poly
 10
965
 20
168
 0
VERTEX
 8
Poly
 10
963
 20
173
 0
VERTEX
 8
Poly
 10
965
 20
173
 0
SEQEND
 8
Poly
 0
LINE
 8
Line
 10
967
 20
168
 11
965
 21
168
 0
LINE
 8
Line
 10
965
 20
173
 11
967
 21
168
 0
POLYLINE
 8
Poly
 66
 1
 0
VERTEX
 8
Poly
 10
1101
 20
171
 0
VERTEX
 8
Poly
 10
1101
 20
173
 0
VERTEX
 8
Poly
 10
1106
 20
169
 0
VERTEX
 8
Poly
 10
1101
 20
171
 0
SEQEND
 8
Poly
 0
POLYLINE
 8
Poly
 66
 1
 0
VERTEX
 8
Poly
 10
1060
 20
166
 0
VERTEX
 8
Poly
 10
1058
 20
166
 0
VERTEX
 8
Poly
 10
1058
 20
172
 0
VERTEX
 8
Poly
 10
1070
 20
172
 0
SEQEND
 8
Poly
 0
LINE
 8
Line
 10
1070
 20
172
 11
1070
 21
165
 0
POLYLINE
 8
Poly
 66
 1
 0
VERTEX
 8
Poly
 10
1060
 20
166
 0
VERTEX
 8
Poly
 10
1060
 20
169
 0
VERTEX
 8
Poly
 10
1067
 20
169
 0
VERTEX
 8
Poly
 10
1068
 20
168
 0
VERTEX
 8
Poly
 10
1068
 20
165
 0
VERTEX
 8
Poly
 10
1070
 20
165
 0
SEQEND
 8
Poly
 0
POLYLINE
 8
Poly
 66
 1
 0
VERTEX
 8
Poly
 10
1085
 20
169
 0
VERTEX
 8
Poly
 10
1085
 20
171
 0
VERTEX
 8
Poly
 10
1087
 20
172
 0
VERTEX
 8
Poly
 10
1089
 20
172
 0
SEQEND
 8
Poly
 0
POLYLINE
 8
Poly
 66
 1
 0
VERTEX
 8
Poly
 10
1089
 20
172
 0
VERTEX
 8
Poly
 10
1089
 20
170
 0
VERTEX
 8
Poly
 10
1088
 20
169
 0
VERTEX
 8
Poly
 10
1085
 20
169
 0
SEQEND
 8
Poly
 0
POLYLINE
 8
Poly
 66
 1
 0
VERTEX
 8
Poly
 10
940
 20
167
 0
VERTEX
 8
Poly
 10
943
 20
171
 0
VERTEX
 8
Poly
 10
945
 20
171
 0
SEQEND
 8
Poly
 0
LINE
 8
Line
 10
945
 20
169
 11
940
 21
167
 0
LINE
 8
Line
 10
945
 20
171
 11
945
 21
169
 0
POLYLINE
 8
Poly
 66
 1
 0
VERTEX
 8
Poly
 10
948
 20
169
 0
VERTEX
 8
Poly
 10
948
 20
171
 0
VERTEX
 8
Poly
 10
950
 20
171
 0
SEQEND
 8
Poly
 0
LINE
 8
Line
 10
950
 20
169
 11
948
 21
169
 0
LINE
 8
Line
 10
950
 20
171
 11
950
 21
169
 0
POLYLINE
 8
Poly
 66
 1
 0
VERTEX
 8
Poly
 10
971
 20
169
 0
VERTEX
 8
Poly
 10
971
 20
171
 0
VERTEX
 8
Poly
 10
973
 20
171
 0
SEQEND
 8
Poly
 0
LINE
 8
Line
 10
973
 20
169
 11
971
 21
169
 0
LINE
 8
Line
 10
973
 20
171
 11
973
 21
169
 0
POLYLINE
 8
Poly
 66
 1
 0
VERTEX
 8
Poly
 10
1053
 20
166
 0
VERTEX
 8
Poly
 10
1051
 20
171
 0
VERTEX
 8
Poly
 10
1055
 20
166
 0
VERTEX
 8
Poly
 10
1053
 20
166
 0
SEQEND
 8
Poly
 0
POLYLINE
 8
Poly
 66
 1
 0
VERTEX
 8
Poly
 10
1078
 20
165
 0
VERTEX
 8
Poly
 10
1078
 20
167
 0
VERTEX
 8
Poly
 10
1081
 20
171
 0
VERTEX
 8
Poly
 10
1083
 20
171
 0
SEQEND
 8
Poly
 0
LINE
 8
Line
 10
1082
 20
166
 11
1083
 21
171
 0
LINE
 8
Line
 10
1078
 20
165
 11
1082
 21
166
 0
POLYLINE
 8
Poly
 66
 1
 0
VERTEX
 8
Poly
 10
849
 20
166
 0
VERTEX
 8
Poly
 10
849
 20
169
 0
VERTEX
 8
Poly
 10
851
 20
169
 0
SEQEND
 8
Poly
 0
LINE
 8
Line
 10
851
 20
166
 11
849
 21
166
 0
LINE
 8
Line
 10
851
 20
169
 11
851
 21
166
 0
POLYLINE
 8
Poly
 66
 1
 0
VERTEX
 8
Poly
 10
1096
 20
166
 0
VERTEX
 8
Poly
 10
1096
 20
169
 0
VERTEX
 8
Poly
 10
1098
 20
169
 0
SEQEND
 8
Poly
 0
LINE
 8
Line
 10
1098
 20
166
 11
1096
 21
166
 0
LINE
 8
Line
 10
1098
 20
169
 11
1098
 21
166
 0
POLYLINE
 8
Poly
 66
 1
 0
VERTEX
 8
Poly
 10
935
 20
166
 0
VERTEX
 8
Poly
 10
935
 20
168
 0
VERTEX
 8
Poly
 10
937
 20
168
 0
SEQEND
 8
Poly
 0
LINE
 8
Line
 10
937
 20
166
 11
935
 21
166
 0
LINE
 8
Line
 10
937
 20
168
 11
937
 21
166
 0
POLYLINE
 8
Poly
 66
 1
 0
VERTEX
 8
Poly
 10
1092
 20
166
 0
VERTEX
 8
Poly
 10
1092
 20
168
 0
VERTEX
 8
Poly
 10
1094
 20
168
 0
SEQEND
 8
Poly
 0
LINE
 8
Line
 10
1094
 20
166
 11
1092
 21
166
 0
LINE
 8
Line
 10
1094
 20
168
 11
1094
 21
166
 0
POLYLINE
 8
Poly
 66
 1
 0
VERTEX
 8
Poly
 10
958
 20
165
 0
VERTEX
 8
Poly
 10
958
 20
167
 0
VERTEX
 8
Poly
 10
960
 20
167
 0
SEQEND
 8
Poly
 0
LINE
 8
Line
 10
960
 20
165
 11
958
 21
165
 0
LINE
 8
Line
 10
960
 20
167
 11
960
 21
165
 0
ARC
 8
Line
 10
381.72131147541
 20
586.926229508197
 40
214.92743989741
 50
-95.5325214599199
 51
-78.9270469456849
 0
ARC
 8
Line
 10
501.840206185567
 20
483.809278350516
 40
115.300861718091
 50
-101.932851959552
 51
-72.2454723881179
 0
ARC
 8
Line
 10
279.090163934426
 20
368.483606557377
 40
245.971701767523
 50
1.28507694705552
 51
13.7625639302222
 0
ARC
 8
Line
 10
584.785714285714
 20
394
 40
99.6144864884989
 50
155.695450734068
 51
-169.004300826081
 0
ARC
 8
Line
 10
746.5
 20
387
 40
147.838594419725
 50
161.871442799354
 51
-176.121475497158
 0
ARC
 8
Line
 10
591.5
 20
385
 40
10.9658560997307
 50
-114.227745317958
 51
-46.847610265996
 0
ARC
 8
Line
 10
759.5
 20
379.5
 40
12.747548783982
 50
131.82016988014
 51
-138.179830119868
 0
ARC
 8
Line
 10
658.1
 20
394
 40
60.1781521816681
 50
134.394074275262
 51
-161.59515930858
 0
ARC
 8
Line
 10
592.5
 20
-5.49999999999932
 40
377.500331125682
 50
82.7714428446988
 51
90.0758884053117
 0
ARC
 8
Line
 10
742
 20
585
 40
217.082933460924
 50
-97.9434718105933
 51
-88.4161884291407
 0
ARC
 8
Line
 10
607.046511627907
 20
388.511627906977
 40
142.43810151661
 50
-8.27959572488877
 51
17.3551407407023
 0
ARC
 8
Line
 10
841.651515151515
 20
406.80303030303
 40
43.9563446927874
 50
-118.022532194382
 51
-68.1655839234578
 0
ARC
 8
Line
 10
1080.87209302326
 20
468.848837209303
 40
107.745575212284
 50
-113.447037382548
 51
-79.2333461092773
 0
ARC
 8
Line
 10
990.3
 20
376.7
 40
12.4651514230674
 50
131.74805439964
 51
-110.179458664514
 0
ARC
 8
Line
 10
1057.90740740741
 20
376.944444444444
 40
14.7602002581201
 50
-160.428379299484
 51
-61.2805367796793
 0
ARC
 8
Line
 10
1087.5
 20
111.499999999999
 40
253.500493096168
 50
89.886990719502
 51
95.0921151245018
 0
ARC
 8
Line
 10
1066.91176470588
 20
380.029411764706
 40
123.600434764804
 50
157.16303908812
 51
-173.948889462905
 0
ARC
 8
Line
 10
487
 20
380
 40
13.0384048104054
 50
147.528807709156
 51
-175.60129464501
 0
ARC
 8
Line
 10
377.764705882353
 20
244.970588235294
 40
40.9130756334142
 50
-138.759828491324
 51
-58.7324960337924
 0
ARC
 8
Line
 10
636.617647058824
 20
179.205882352941
 40
11.2019060414707
 50
-114.344353351827
 51
-22.0528276754739
 0
ARC
 8
Line
 10
613.061779242175
 20
231.621911037891
 40
33.9870381373288
 50
-148.769037840978
 51
14.2709905265495
 0
ARC
 8
Line
 10
729.438053097345
 20
228.092920353982
 40
32.6115050131323
 50
-144.164097657706
 51
-53.1409859245292
 0
ARC
 8
Line
 10
675.852941176471
 20
259.382352941177
 40
92.9689552678668
 50
-38.1134497249589
 51
-16.4856946977084
 0
ARC
 8
Line
 10
376.857142857143
 20
235
 40
30.722590239438
 50
-125.537677791978
 51
-38.2021174997148
 0
ARC
 8
Line
 10
369.44578313253
 20
244.379518072289
 40
42.4389637966658
 50
-41.9678678638345
 51
11.7198532472125
 0
ARC
 8
Line
 10
857.730769230769
 20
234.269230769231
 40
45.9748130170495
 50
174.093858886235
 51
-133.644140023897
 0
ARC
 8
Line
 10
847.151162790698
 20
227.197674418605
 40
33.6703108441519
 50
-128.916294847776
 51
-53.8780672068217
 0
ARC
 8
Line
 10
814.216417910448
 20
244.111940298507
 40
68.7893146869744
 50
-39.8859521006187
 51
0.739700439797232
 0
ARC
 8
Line
 10
849.247474747475
 20
232.29797979798
 40
36.1915294425009
 50
161.135214469862
 51
-125.950365345498
 0
ARC
 8
Line
 10
847.491071428571
 20
225.625
 40
29.8628948769819
 50
-130.744366569149
 51
-41.0843998709067
 0
ARC
 8
Line
 10
971.338862559242
 20
231.642180094787
 40
42.6765218468781
 50
172.787775530453
 51
-102.640266543754
 0
ARC
 8
Line
 10
495.855371900826
 20
230.747933884298
 40
28.9185546271109
 50
-128.129176714008
 51
-45.84524827763
 0
ARC
 8
Line
 10
851.282608695652
 20
229.021739130435
 40
28.9015178073573
 50
-49.6371052809174
 51
31.2150521992834
 0
ARC
 8
Line
 10
499.122448979592
 20
235.239795918367
 40
29.5367471907551
 50
-55.1514905670994
 51
19.2956510430838
 0
ARC
 8
Line
 10
729.065476190476
 20
230.410714285714
 40
32.1580045878206
 50
-159.216803570097
 51
-49.3837513282798
 0
ARC
 8
Line
 10
1081.61764705882
 20
229.235294117647
 40
37.2372571734186
 50
169.533244306223
 51
-42.6633466603747
 0
ARC
 8
Line
 10
1069.16363636364
 20
227.790909090909
 40
46.3998192145238
 50
-30.8463196967547
 51
19.1342925258965
 0
ARC
 8
Line
 10
969.651394422311
 20
233.4203187251
 40
39.8208561449614
 50
166.079848087442
 51
-122.937233704932
 0
ARC
 8
Line
 10
593.5
 20
219.571428571429
 40
12.5813678241489
 50
173.480198248348
 51
-87.7223910416685
 0
ARC
 8
Line
 10
611.026315789474
 20
235.248987854251
 40
35.0050015978439
 50
-51.1171675305162
 51
19.6148202036092
 0
ARC
 8
Line
 10
964.935483870968
 20
213.870967741935
 40
21.8909652606189
 50
-140.68089081797
 51
-42.790518359892
 0
ARC
 8
Line
 10
613
 20
228.75
 40
28.8801402351166
 50
-131.139267375121
 51
-48.8607326248848
 0
ARC
 8
Line
 10
972.5
 20
221.5
 40
22.6384628453435
 50
-59.4702941000677
 51
6.3401917459101
 0
ARC
 8
Line
 10
1082.18
 20
232.22
 40
36.5141178176331
 50
164.464129820357
 51
-118.066948793059
 0
ARC
 8
Line
 10
1083
 20
221.8
 40
28.2708330262834
 50
-129.546081111413
 51
-50.4539188885927
 0
ARC
 8
Line
 10
1080.94047619048
 20
226.97619047619
 40
32.8199172320739
 50
-52.3236997368815
 51
31.2453322796244
 0
ARC
 8
Line
 10
454.192307692308
 20
353.884615384615
 40
32.4258370939379
 50
143.877691687325
 51
-173.119439664589
 0
ARC
 8
Line
 10
572.454545454546
 20
335.840909090909
 40
110.833639107679
 50
165.815580578807
 51
-168.107106255157
 0
ARC
 8
Line
 10
1009.6
 20
348.9
 40
31.7800251730548
 50
-8.86952619049094
 51
36.9420131263448
 0
ARC
 8
Line
 10
847.25
 20
330.75
 40
153.75508121685
 50
-9.26321979275633
 51
11.3464731447763
 0
ARC
 8
Line
 10
744.5
 20
331.5
 40
283.041516389381
 50
174.017483074148
 51
-176.45523354441
 0
ARC
 8
Line
 10
433.679104477612
 20
325.231343283582
 40
13.0672685966318
 50
115.760182572978
 51
-120.739288416977
 0
ARC
 8
Line
 10
564.263033175355
 20
403.571090047393
 40
43.887804753974
 50
-123.562223253561
 51
-67.5821723543723
 0
ARC
 8
Line
 10
786
 20
396.375
 40
39.6911907732684
 50
-116.96853591214
 51
-63.031464087865
 0
ARC
 8
Line
 10
784.944444444444
 20
352.722222222222
 40
27.4767016907501
 50
-18.508217043232
 51
28.8970748587019
 0
ARC
 8
Line
 10
711.5
 20
332.5
 40
403.507744659257
 50
-4.05020842776052
 51
4.05020842776052
 0
ARC
 8
Line
 10
901.86
 20
399.66
 40
44.942354188449
 50
-112.033413275463
 51
-61.9410117161757
 0
ARC
 8
Line
 10
561
 20
432
 40
73.24616030892
 50
-104.225963898755
 51
-75.7740361012505
 0
ARC
 8
Line
 10
921
 20
322.5
 40
344.160209786082
 50
173.577077360906
 51
-178.251689079154
 0
ARC
 8
Line
 10
549.155172413793
 20
322.51724137931
 40
13.9178091029415
 50
116.247626283329
 51
-136.857319220862
 0
ARC
 8
Line
 10
801.833333333333
 20
335.5
 40
109.834471415449
 50
166.575281932196
 51
-166.575281932196
 0
ARC
 8
Line
 10
780.25
 20
320.25
 40
13.8067012714842
 50
121.675468738113
 51
-132.064326553583
 0
ARC
 8
Line
 10
1029.41176470588
 20
317.617647058824
 40
12.8917840846724
 50
-64.3118565643549
 51
73.8391399458075
 0
ARC
 8
Line
 10
865.884615384615
 20
330.669230769231
 40
173.889707614341
 50
171.290643493936
 51
-173.836703534049
 0
ARC
 8
Line
 10
817.5
 20
331.5
 40
299.503756236879
 50
-4.6921510837651
 51
4.6921510837651
 0
ARC
 8
Line
 10
890
 20
421
 40
67.1863081289633
 50
-94.2678933002936
 51
-75.3432488842418
 0
ARC
 8
Line
 10
914.029411764706
 20
348.5
 40
10.2792329362548
 50
-14.0760045854255
 51
133.144914746509
 0
ARC
 8
Line
 10
850.357142857143
 20
314.392857142857
 40
72.9236128858583
 50
-5.02929720212413
 51
23.9539416181759
 0
ARC
 8
Line
 10
908.5
 20
317
 40
24.8243831746128
 50
145.669782804501
 51
-161.200114841352
 0
CIRCLE
 8
Line
 10
441
 20
280
 40
17
 0
CIRCLE
 8
Line
 10
555
 20
276
 40
17
 0
CIRCLE
 8
Line
 10
671
 20
275
 40
16
 0
CIRCLE
 8
Line
 10
788
 20
274
 40
19
 0
CIRCLE
 8
Line
 10
903
 20
272
 40
19
 0
CIRCLE
 8
Line
 10
1019
 20
271
 40
19
 0
CIRCLE
 8
Line
 10
1135
 20
271
 40
18
 0
ARC
 8
Line
 10
1012.72580645161
 20
270.854838709677
 40
20.3065092622616
 50
-25.8527069649154
 51
36.7333710269266
 0
ARC
 8
Line
 10
367.844720496894
 20
232.76397515528
 40
29.4877436305383
 50
-17.2899491144692
 51
97.491764206896
 0
ARC
 8
Line
 10
381.5
 20
243.277777777778
 40
29.5276601858221
 50
164.839428702074
 51
-73.2697794960874
 0
ARC
 8
Line
 10
493.523923444976
 20
233.897129186603
 40
27.3310014959889
 50
-21.2305102440439
 51
97.4080560059968
 0
ARC
 8
Line
 10
518.95
 20
214
 40
10.0001249992187
 50
89.7135234897252
 51
-174.260901501916
 0
ARC
 8
Line
 10
491.136363636364
 20
229.136363636364
 40
18.5433376688456
 50
167.973907580514
 51
-119.518416944605
 0
ARC
 8
Line
 10
371.710702341137
 20
240.834448160535
 40
20.306449793663
 50
-2.35510510661386
 51
109.297394372647
 0
ARC
 8
Line
 10
380
 20
240
 40
19.1049731745428
 50
-96.0090059574974
 51
-42.8789036033398
 0
ARC
 8
Line
 10
499.7
 20
249.5
 40
10.5990565617889
 50
-13.6429147759905
 51
116.323298267813
 0
ARC
 8
Line
 10
482.428571428571
 20
242.012987012987
 40
12.4677015681173
 50
105.96179188832
 51
-126.571484825853
 0
ARC
 8
Line
 10
492.553571428572
 20
227.919642857143
 40
18.021575522446
 50
166.913893868525
 51
-50.5687870218676
 0
ARC
 8
Line
 10
500.237430167598
 20
235.064245810056
 40
17.4741356527215
 50
-77.5655675683736
 51
43.0826487704926
 0
ARC
 8
Line
 10
609.5
 20
234.5
 40
24.1350367722943
 50
103.17255342333
 51
-166.827446576678
 0
ARC
 8
Line
 10
612.445205479452
 20
231.109589041096
 40
24.5360640049488
 50
-175.067669905778
 51
-47.5681546451519
 0
ARC
 8
Line
 10
755.214285714286
 20
221.663265306122
 40
52.2313937426034
 50
145.82872754229
 51
178.533494628674
 0
ARC
 8
Line
 10
717.6
 20
225.5
 40
37.4300681271087
 50
-2.29672811837755
 51
42.9430017777047
 0
ARC
 8
Line
 10
742.5
 20
233.615384615385
 40
14.3933026009778
 50
-53.8037790304637
 51
91.990763031436
 0
ARC
 8
Line
 10
727.517467248908
 20
234.989082969432
 40
19.4686341807215
 50
41.9361071634009
 51
162.016157725012
 0
ARC
 8
Line
 10
616.25
 20
238.75
 40
16.2980060130067
 50
48.731396999162
 51
94.3987053549983
 0
ARC
 8
Line
 10
615
 20
232
 40
21.9317121994613
 50
-24.2277453179549
 51
46.847610265996
 0
ARC
 8
Line
 10
610.5
 20
226.9
 40
17.9627392120467
 50
-134.097778838474
 51
-45.9022211615316
 0
ARC
 8
Line
 10
848.388888888889
 20
230.574074074074
 40
23.5474159009099
 50
-16.2115405265245
 51
95.8226827110573
 0
ARC
 8
Line
 10
854.216216216216
 20
226.182432432432
 40
33.9838837593479
 50
133.090579211499
 51
-167.798628484023
 0
ARC
 8
Line
 10
846.800884955752
 20
229.544247787611
 40
26.5393265260286
 50
-129.275964406914
 51
-33.2317110679803
 0
ARC
 8
Line
 10
842.045454545455
 20
240.954545454545
 40
12.1057666744763
 50
65.8409193395692
 51
138.348594814461
 0
ARC
 8
Line
 10
849.51724137931
 20
234.310344827586
 40
17.8678595327089
 50
11.917132234438
 51
98.0988273684479
 0
ARC
 8
Line
 10
836.428571428571
 20
232.428571428571
 40
15.471501121054
 50
118.694904379347
 51
-132.380451204609
 0
ARC
 8
Line
 10
846.413043478261
 20
223.532608695652
 40
18.5864003222146
 50
-172.168433866481
 51
-51.4343851062294
 0
ARC
 8
Line
 10
853
 20
220
 40
12.0830459735946
 50
-65.5560452195854
 51
24.4439547804173
 0
ARC
 8
Line
 10
1085.92307692308
 20
223.570512820513
 40
29.2602928107609
 50
103.686140777284
 51
-152.368320650671
 0
ARC
 8
Line
 10
1077.60775862069
 20
221.758620689655
 40
20.8207881867951
 50
-130.811003414862
 51
-27.9496860328324
 0
CIRCLE
 8
Line
 10
963
 20
226
 40
25
 0
CIRCLE
 8
Line
 10
1082
 20
228
 40
22
 0
ARC
 8
Line
 10
1078.58955223881
 20
220.873134328358
 40
18.4529921820899
 50
-147.653209020059
 51
-59.3382575415381
 0
ARC
 8
Line
 10
644
 20
219.5
 40
28.0401497856199
 50
148.861027563026
 51
-176.933514498879
 0
ARC
 8
Line
 10
381.090909090909
 20
222.090909090909
 40
10.1272890484608
 50
-143.027237510436
 51
-11.9151470712652
 0
ARC
 8
Line
 10
494.54347826087
 20
233.434782608696
 40
34.2218728074591
 50
-153.190792149483
 51
-53.2902476808969
 0
ARC
 8
Line
 10
733.184931506849
 20
246.732876712328
 40
42.9028378981915
 50
-125.945999807872
 51
-84.898322829612
 0
ARC
 8
Line
 10
733.5
 20
243.75
 40
37.9119044628466
 50
-128.305770868111
 51
-84.7029518954057
 0
ARC
 8
Line
 10
476.7
 20
182.3
 40
11.0535062310562
 50
-151.348171547356
 51
-41.3322119444698
 0
ARC
 8
Line
 10
475.5
 20
169.5
 40
12.747548783982
 50
41.820169880137
 51
131.82016988014
 0
ARC
 8
Line
 10
737.946153846154
 20
368.038461538462
 40
191.554703358331
 50
-99.2970241933256
 51
-82.7862291586997
 0
ARC
 8
Line
 10
841.03781512605
 20
232.399159663866
 40
59.8529802584297
 50
-109.559398538752
 51
-65.3509927016274
 0
ARC
 8
Line
 10
632.9
 20
181.1
 40
12.1827747249959
 50
-144.352979250097
 51
-41.6725957582747
 0
ENDSEC
 0
EOF
