 0
SECTION
 2
HEADER
 9
$ACADVER
 1
AC1006
 9
$INSBASE
 10
0
 20
0
 9
$EXTMIN
 10
0
 20
0
 9
$EXTMAX
 10
571
 20
620
 9
$LIMMIN
 10
0
 20
0
 9
$LIMMAX
 10
571
 20
620
 0
ENDSEC
 0
SECTION
 2
TABLES
 0
TABLE
 2 
LTYPE
 70
 1
 0
LTYPE
 2
CONTINUOUS
 70
 64
 3
Solid line
 72
 65
 73
 0
 40
 0.0
 0
ENDTAB
 0
TABLE
 2 
LAYER
 70
 4
 0
LAYER
 2
Text
 70
 64
 62
 6
 6
CONTINUOUS
 0
LAYER
 2
Line
 70
 64
 62
 1
 6
CONTINUOUS
 0
LAYER
 2
Poly
 70
 64
 62
 3
 6
CONTINUOUS
 0
ENDTAB
 0
ENDSEC
 0
SECTION
 2
BLOCKS
 0
ENDSEC
 0
SECTION
 2
ENTITIES
 0
POLYLINE
 8
Poly
 66
 1
 0
VERTEX
 8
Poly
 10
174
 20
463
 0
VERTEX
 8
Poly
 10
177
 20
466
 0
VERTEX
 8
Poly
 10
158
 20
465
 0
VERTEX
 8
Poly
 10
158
 20
464
 0
SEQEND
 8
Poly
 0
LINE
 8
Line
 10
158
 20
464
 11
156
 21
464
 0
POLYLINE
 8
Poly
 66
 1
 0
VERTEX
 8
Poly
 10
184
 20
466
 0
VERTEX
 8
Poly
 10
183
 20
462
 0
VERTEX
 8
Poly
 10
296
 20
461
 0
VERTEX
 8
Poly
 10
299
 20
462
 0
SEQEND
 8
Poly
 0
POLYLINE
 8
Poly
 66
 1
 0
VERTEX
 8
Poly
 10
184
 20
466
 0
VERTEX
 8
Poly
 10
224
 20
464
 0
VERTEX
 8
Poly
 10
224
 20
463
 0
SEQEND
 8
Poly
 0
POLYLINE
 8
Poly
 66
 1
 0
VERTEX
 8
Poly
 10
299
 20
462
 0
VERTEX
 8
Poly
 10
299
 20
461
 0
VERTEX
 8
Poly
 10
354
 20
460
 0
VERTEX
 8
Poly
 10
357
 20
462
 0
VERTEX
 8
Poly
 10
357
 20
464
 0
VERTEX
 8
Poly
 10
354
 20
464
 0
VERTEX
 8
Poly
 10
345
 20
463
 0
VERTEX
 8
Poly
 10
345
 20
462
 0
SEQEND
 8
Poly
 0
LINE
 8
Line
 10
293
 20
464
 11
293
 21
463
 0
LINE
 8
Line
 10
224
 20
463
 11
230
 21
463
 0
LINE
 8
Line
 10
293
 20
463
 11
289
 21
463
 0
LINE
 8
Line
 10
260
 20
464
 11
260
 21
463
 0
LINE
 8
Line
 10
262
 20
463
 11
262
 21
464
 0
LINE
 8
Line
 10
260
 20
463
 11
262
 21
463
 0
POLYLINE
 8
Poly
 66
 1
 0
VERTEX
 8
Poly
 10
365
 20
464
 0
VERTEX
 8
Poly
 10
364
 20
463
 0
VERTEX
 8
Poly
 10
361
 20
462
 0
VERTEX
 8
Poly
 10
361
 20
460
 0
VERTEX
 8
Poly
 10
455
 20
459
 0
SEQEND
 8
Poly
 0
POLYLINE
 8
Poly
 66
 1
 0
VERTEX
 8
Poly
 10
365
 20
464
 0
VERTEX
 8
Poly
 10
447
 20
464
 0
VERTEX
 8
Poly
 10
448
 20
463
 0
VERTEX
 8
Poly
 10
448
 20
461
 0
SEQEND
 8
Poly
 0
POLYLINE
 8
Poly
 66
 1
 0
VERTEX
 8
Poly
 10
219
 20
457
 0
VERTEX
 8
Poly
 10
214
 20
459
 0
VERTEX
 8
Poly
 10
213
 20
458
 0
VERTEX
 8
Poly
 10
215
 20
449
 0
SEQEND
 8
Poly
 0
LINE
 8
Line
 10
215
 20
449
 11
216
 21
449
 0
LINE
 8
Line
 10
219
 20
457
 11
221
 21
457
 0
POLYLINE
 8
Poly
 66
 1
 0
VERTEX
 8
Poly
 10
215
 20
447
 0
VERTEX
 8
Poly
 10
216
 20
449
 0
VERTEX
 8
Poly
 10
217
 20
451
 0
SEQEND
 8
Poly
 0
POLYLINE
 8
Poly
 66
 1
 0
VERTEX
 8
Poly
 10
221
 20
457
 0
VERTEX
 8
Poly
 10
229
 20
459
 0
VERTEX
 8
Poly
 10
232
 20
457
 0
SEQEND
 8
Poly
 0
POLYLINE
 8
Poly
 66
 1
 0
VERTEX
 8
Poly
 10
219
 20
440
 0
VERTEX
 8
Poly
 10
224
 20
440
 0
VERTEX
 8
Poly
 10
221
 20
437
 0
SEQEND
 8
Poly
 0
LINE
 8
Line
 10
215
 20
447
 11
213
 21
441
 0
LINE
 8
Line
 10
217
 20
451
 11
221
 21
451
 0
LINE
 8
Line
 10
221
 20
437
 11
219
 21
438
 0
LINE
 8
Line
 10
213
 20
441
 11
211
 21
441
 0
LINE
 8
Line
 10
221
 20
451
 11
221
 21
455
 0
POLYLINE
 8
Poly
 66
 1
 0
VERTEX
 8
Poly
 10
247
 20
457
 0
VERTEX
 8
Poly
 10
251
 20
459
 0
VERTEX
 8
Poly
 10
252
 20
457
 0
SEQEND
 8
Poly
 0
LINE
 8
Line
 10
219
 20
438
 11
217
 21
438
 0
LINE
 8
Line
 10
211
 20
441
 11
208
 21
446
 0
POLYLINE
 8
Poly
 66
 1
 0
VERTEX
 8
Poly
 10
221
 20
455
 0
VERTEX
 8
Poly
 10
223
 20
455
 0
VERTEX
 8
Poly
 10
225
 20
453
 0
VERTEX
 8
Poly
 10
225
 20
449
 0
SEQEND
 8
Poly
 0
LINE
 8
Line
 10
252
 20
457
 11
254
 21
457
 0
LINE
 8
Line
 10
217
 20
438
 11
217
 21
434
 0
POLYLINE
 8
Poly
 66
 1
 0
VERTEX
 8
Poly
 10
208
 20
446
 0
VERTEX
 8
Poly
 10
205
 20
443
 0
VERTEX
 8
Poly
 10
206
 20
443
 0
SEQEND
 8
Poly
 0
LINE
 8
Line
 10
225
 20
449
 11
220
 21
448
 0
LINE
 8
Line
 10
217
 20
434
 11
210
 21
436
 0
LINE
 8
Line
 10
206
 20
443
 11
209
 21
441
 0
LINE
 8
Line
 10
220
 20
448
 11
220
 21
447
 0
POLYLINE
 8
Poly
 66
 1
 0
VERTEX
 8
Poly
 10
268
 20
457
 0
VERTEX
 8
Poly
 10
269
 20
453
 0
VERTEX
 8
Poly
 10
264
 20
453
 0
SEQEND
 8
Poly
 0
POLYLINE
 8
Poly
 66
 1
 0
VERTEX
 8
Poly
 10
211
 20
437
 0
VERTEX
 8
Poly
 10
210
 20
436
 0
VERTEX
 8
Poly
 10
206
 20
437
 0
SEQEND
 8
Poly
 0
LINE
 8
Line
 10
209
 20
441
 11
209
 21
439
 0
LINE
 8
Line
 10
220
 20
447
 11
224
 21
447
 0
LINE
 8
Line
 10
264
 20
453
 11
264
 21
454
 0
POLYLINE
 8
Poly
 66
 1
 0
VERTEX
 8
Poly
 10
211
 20
439
 0
VERTEX
 8
Poly
 10
211
 20
437
 0
VERTEX
 8
Poly
 10
215
 20
436
 0
SEQEND
 8
Poly
 0
POLYLINE
 8
Poly
 66
 1
 0
VERTEX
 8
Poly
 10
206
 20
437
 0
VERTEX
 8
Poly
 10
204
 20
435
 0
VERTEX
 8
Poly
 10
204
 20
438
 0
VERTEX
 8
Poly
 10
205
 20
439
 0
VERTEX
 8
Poly
 10
209
 20
439
 0
SEQEND
 8
Poly
 0
POLYLINE
 8
Poly
 66
 1
 0
VERTEX
 8
Poly
 10
224
 20
447
 0
VERTEX
 8
Poly
 10
224
 20
443
 0
VERTEX
 8
Poly
 10
229
 20
445
 0
SEQEND
 8
Poly
 0
LINE
 8
Line
 10
264
 20
454
 11
259
 21
450
 0
LINE
 8
Line
 10
215
 20
439
 11
211
 21
439
 0
LINE
 8
Line
 10
215
 20
436
 11
215
 21
439
 0
LINE
 8
Line
 10
229
 20
445
 11
228
 21
451
 0
POLYLINE
 8
Poly
 66
 1
 0
VERTEX
 8
Poly
 10
259
 20
450
 0
VERTEX
 8
Poly
 10
262
 20
450
 0
VERTEX
 8
Poly
 10
262
 20
448
 0
SEQEND
 8
Poly
 0
LINE
 8
Line
 10
228
 20
451
 11
230
 21
451
 0
LINE
 8
Line
 10
262
 20
448
 11
272
 21
448
 0
LINE
 8
Line
 10
230
 20
451
 11
232
 21
449
 0
LINE
 8
Line
 10
272
 20
448
 11
273
 21
450
 0
POLYLINE
 8
Poly
 66
 1
 0
VERTEX
 8
Poly
 10
232
 20
452
 0
VERTEX
 8
Poly
 10
232
 20
449
 0
VERTEX
 8
Poly
 10
235
 20
447
 0
SEQEND
 8
Poly
 0
POLYLINE
 8
Poly
 66
 1
 0
VERTEX
 8
Poly
 10
274
 20
451
 0
VERTEX
 8
Poly
 10
273
 20
450
 0
VERTEX
 8
Poly
 10
274
 20
448
 0
SEQEND
 8
Poly
 0
LINE
 8
Line
 10
232
 20
450
 11
235
 21
450
 0
LINE
 8
Line
 10
235
 20
447
 11
237
 21
443
 0
POLYLINE
 8
Poly
 66
 1
 0
VERTEX
 8
Poly
 10
275
 20
452
 0
VERTEX
 8
Poly
 10
274
 20
451
 0
VERTEX
 8
Poly
 10
274
 20
453
 0
SEQEND
 8
Poly
 0
LINE
 8
Line
 10
274
 20
448
 11
275
 21
448
 0
LINE
 8
Line
 10
232
 20
452
 11
235
 21
452
 0
POLYLINE
 8
Poly
 66
 1
 0
VERTEX
 8
Poly
 10
235
 20
451
 0
VERTEX
 8
Poly
 10
235
 20
450
 0
VERTEX
 8
Poly
 10
240
 20
451
 0
SEQEND
 8
Poly
 0
LINE
 8
Line
 10
237
 20
443
 11
243
 21
443
 0
POLYLINE
 8
Poly
 66
 1
 0
VERTEX
 8
Poly
 10
274
 20
453
 0
VERTEX
 8
Poly
 10
275
 20
452
 0
VERTEX
 8
Poly
 10
274
 20
453
 0
VERTEX
 8
Poly
 10
273
 20
455
 0
SEQEND
 8
Poly
 0
POLYLINE
 8
Poly
 66
 1
 0
VERTEX
 8
Poly
 10
276
 20
447
 0
VERTEX
 8
Poly
 10
275
 20
448
 0
VERTEX
 8
Poly
 10
276
 20
447
 0
SEQEND
 8
Poly
 0
LINE
 8
Line
 10
235
 20
451
 11
240
 21
454
 0
POLYLINE
 8
Poly
 66
 1
 0
VERTEX
 8
Poly
 10
241
 20
450
 0
VERTEX
 8
Poly
 10
240
 20
451
 0
VERTEX
 8
Poly
 10
240
 20
452
 0
SEQEND
 8
Poly
 0
LINE
 8
Line
 10
243
 20
443
 11
243
 21
444
 0
POLYLINE
 8
Poly
 66
 1
 0
VERTEX
 8
Poly
 10
278
 20
455
 0
VERTEX
 8
Poly
 10
273
 20
455
 0
VERTEX
 8
Poly
 10
271
 20
458
 0
VERTEX
 8
Poly
 10
287
 20
457
 0
VERTEX
 8
Poly
 10
287
 20
455
 0
VERTEX
 8
Poly
 10
285
 20
454
 0
VERTEX
 8
Poly
 10
280
 20
454
 0
SEQEND
 8
Poly
 0
LINE
 8
Line
 10
276
 20
447
 11
264
 21
446
 0
LINE
 8
Line
 10
240
 20
454
 11
240
 21
456
 0
POLYLINE
 8
Poly
 66
 1
 0
VERTEX
 8
Poly
 10
242
 20
451
 0
VERTEX
 8
Poly
 10
241
 20
450
 0
VERTEX
 8
Poly
 10
246
 20
448
 0
VERTEX
 8
Poly
 10
248
 20
451
 0
SEQEND
 8
Poly
 0
POLYLINE
 8
Poly
 66
 1
 0
VERTEX
 8
Poly
 10
240
 20
452
 0
VERTEX
 8
Poly
 10
241
 20
452
 0
VERTEX
 8
Poly
 10
242
 20
451
 0
SEQEND
 8
Poly
 0
LINE
 8
Line
 10
243
 20
444
 11
249
 21
444
 0
POLYLINE
 8
Poly
 66
 1
 0
VERTEX
 8
Poly
 10
278
 20
455
 0
VERTEX
 8
Poly
 10
278
 20
451
 0
VERTEX
 8
Poly
 10
281
 20
448
 0
VERTEX
 8
Poly
 10
283
 20
448
 0
VERTEX
 8
Poly
 10
283
 20
451
 0
VERTEX
 8
Poly
 10
282
 20
452
 0
VERTEX
 8
Poly
 10
280
 20
452
 0
VERTEX
 8
Poly
 10
280
 20
454
 0
SEQEND
 8
Poly
 0
LINE
 8
Line
 10
264
 20
446
 11
258
 21
441
 0
LINE
 8
Line
 10
240
 20
456
 11
242
 21
456
 0
LINE
 8
Line
 10
248
 20
451
 11
242
 21
451
 0
LINE
 8
Line
 10
241
 20
452
 11
242
 21
456
 0
POLYLINE
 8
Poly
 66
 1
 0
VERTEX
 8
Poly
 10
249
 20
444
 0
VERTEX
 8
Poly
 10
253
 20
443
 0
VERTEX
 8
Poly
 10
253
 20
444
 0
SEQEND
 8
Poly
 0
POLYLINE
 8
Poly
 66
 1
 0
VERTEX
 8
Poly
 10
257
 20
440
 0
VERTEX
 8
Poly
 10
258
 20
441
 0
VERTEX
 8
Poly
 10
259
 20
447
 0
SEQEND
 8
Poly
 0
LINE
 8
Line
 10
253
 20
444
 11
255
 21
445
 0
LINE
 8
Line
 10
259
 20
447
 11
257
 21
447
 0
POLYLINE
 8
Poly
 66
 1
 0
VERTEX
 8
Poly
 10
254
 20
446
 0
VERTEX
 8
Poly
 10
255
 20
445
 0
VERTEX
 8
Poly
 10
257
 20
447
 0
VERTEX
 8
Poly
 10
256
 20
448
 0
VERTEX
 8
Poly
 10
254
 20
446
 0
VERTEX
 8
Poly
 10
255
 20
452
 0
SEQEND
 8
Poly
 0
LINE
 8
Line
 10
257
 20
452
 11
256
 21
448
 0
LINE
 8
Line
 10
255
 20
452
 11
257
 21
452
 0
POLYLINE
 8
Poly
 66
 1
 0
VERTEX
 8
Poly
 10
305
 20
456
 0
VERTEX
 8
Poly
 10
305
 20
457
 0
VERTEX
 8
Poly
 10
312
 20
458
 0
VERTEX
 8
Poly
 10
314
 20
458
 0
VERTEX
 8
Poly
 10
315
 20
457
 0
VERTEX
 8
Poly
 10
315
 20
454
 0
SEQEND
 8
Poly
 0
LINE
 8
Line
 10
315
 20
454
 11
330
 21
458
 0
POLYLINE
 8
Poly
 66
 1
 0
VERTEX
 8
Poly
 10
308
 20
451
 0
VERTEX
 8
Poly
 10
309
 20
455
 0
VERTEX
 8
Poly
 10
305
 20
456
 0
VERTEX
 8
Poly
 10
303
 20
455
 0
SEQEND
 8
Poly
 0
POLYLINE
 8
Poly
 66
 1
 0
VERTEX
 8
Poly
 10
305
 20
451
 0
VERTEX
 8
Poly
 10
303
 20
455
 0
VERTEX
 8
Poly
 10
301
 20
450
 0
VERTEX
 8
Poly
 10
307
 20
448
 0
SEQEND
 8
Poly
 0
LINE
 8
Line
 10
330
 20
458
 11
330
 21
457
 0
LINE
 8
Line
 10
308
 20
451
 11
305
 21
451
 0
LINE
 8
Line
 10
307
 20
448
 11
309
 21
444
 0
LINE
 8
Line
 10
330
 20
457
 11
333
 21
453
 0
LINE
 8
Line
 10
309
 20
444
 11
315
 21
444
 0
POLYLINE
 8
Poly
 66
 1
 0
VERTEX
 8
Poly
 10
335
 20
453
 0
VERTEX
 8
Poly
 10
333
 20
453
 0
VERTEX
 8
Poly
 10
330
 20
455
 0
SEQEND
 8
Poly
 0
LINE
 8
Line
 10
315
 20
444
 11
311
 21
447
 0
POLYLINE
 8
Poly
 66
 1
 0
VERTEX
 8
Poly
 10
335
 20
453
 0
VERTEX
 8
Poly
 10
335
 20
456
 0
VERTEX
 8
Poly
 10
335
 20
453
 0
SEQEND
 8
Poly
 0
LINE
 8
Line
 10
330
 20
455
 11
323
 21
455
 0
LINE
 8
Line
 10
311
 20
447
 11
311
 21
449
 0
LINE
 8
Line
 10
323
 20
455
 11
321
 21
453
 0
LINE
 8
Line
 10
311
 20
449
 11
314
 21
451
 0
POLYLINE
 8
Poly
 66
 1
 0
VERTEX
 8
Poly
 10
321
 20
453
 0
VERTEX
 8
Poly
 10
319
 20
449
 0
VERTEX
 8
Poly
 10
318
 20
452
 0
VERTEX
 8
Poly
 10
314
 20
451
 0
SEQEND
 8
Poly
 0
POLYLINE
 8
Poly
 66
 1
 0
VERTEX
 8
Poly
 10
367
 20
456
 0
VERTEX
 8
Poly
 10
366
 20
458
 0
VERTEX
 8
Poly
 10
365
 20
456
 0
SEQEND
 8
Poly
 0
POLYLINE
 8
Poly
 66
 1
 0
VERTEX
 8
Poly
 10
365
 20
456
 0
VERTEX
 8
Poly
 10
363
 20
456
 0
VERTEX
 8
Poly
 10
362
 20
455
 0
VERTEX
 8
Poly
 10
361
 20
450
 0
SEQEND
 8
Poly
 0
POLYLINE
 8
Poly
 66
 1
 0
VERTEX
 8
Poly
 10
392
 20
456
 0
VERTEX
 8
Poly
 10
395
 20
456
 0
VERTEX
 8
Poly
 10
392
 20
451
 0
SEQEND
 8
Poly
 0
LINE
 8
Line
 10
361
 20
450
 11
357
 21
449
 0
POLYLINE
 8
Poly
 66
 1
 0
VERTEX
 8
Poly
 10
391
 20
452
 0
VERTEX
 8
Poly
 10
392
 20
451
 0
VERTEX
 8
Poly
 10
397
 20
453
 0
SEQEND
 8
Poly
 0
LINE
 8
Line
 10
357
 20
449
 11
355
 21
451
 0
POLYLINE
 8
Poly
 66
 1
 0
VERTEX
 8
Poly
 10
391
 20
454
 0
VERTEX
 8
Poly
 10
391
 20
452
 0
VERTEX
 8
Poly
 10
389
 20
450
 0
SEQEND
 8
Poly
 0
POLYLINE
 8
Poly
 66
 1
 0
VERTEX
 8
Poly
 10
397
 20
453
 0
VERTEX
 8
Poly
 10
399
 20
449
 0
VERTEX
 8
Poly
 10
399
 20
447
 0
SEQEND
 8
Poly
 0
LINE
 8
Line
 10
355
 20
451
 11
355
 21
449
 0
LINE
 8
Line
 10
391
 20
454
 11
376
 21
450
 0
POLYLINE
 8
Poly
 66
 1
 0
VERTEX
 8
Poly
 10
392
 20
448
 0
VERTEX
 8
Poly
 10
389
 20
450
 0
VERTEX
 8
Poly
 10
387
 20
450
 0
SEQEND
 8
Poly
 0
LINE
 8
Line
 10
399
 20
447
 11
402
 21
456
 0
POLYLINE
 8
Poly
 66
 1
 0
VERTEX
 8
Poly
 10
355
 20
449
 0
VERTEX
 8
Poly
 10
360
 20
443
 0
VERTEX
 8
Poly
 10
363
 20
443
 0
SEQEND
 8
Poly
 0
POLYLINE
 8
Poly
 66
 1
 0
VERTEX
 8
Poly
 10
375
 20
450
 0
VERTEX
 8
Poly
 10
376
 20
450
 0
VERTEX
 8
Poly
 10
377
 20
448
 0
SEQEND
 8
Poly
 0
LINE
 8
Line
 10
392
 20
448
 11
394
 21
446
 0
POLYLINE
 8
Poly
 66
 1
 0
VERTEX
 8
Poly
 10
385
 20
444
 0
VERTEX
 8
Poly
 10
387
 20
450
 0
VERTEX
 8
Poly
 10
383
 20
453
 0
VERTEX
 8
Poly
 10
377
 20
448
 0
SEQEND
 8
Poly
 0
POLYLINE
 8
Poly
 66
 1
 0
VERTEX
 8
Poly
 10
403
 20
454
 0
VERTEX
 8
Poly
 10
402
 20
456
 0
VERTEX
 8
Poly
 10
402
 20
457
 0
SEQEND
 8
Poly
 0
LINE
 8
Line
 10
363
 20
443
 11
363
 21
446
 0
LINE
 8
Line
 10
375
 20
450
 11
375
 21
452
 0
POLYLINE
 8
Poly
 66
 1
 0
VERTEX
 8
Poly
 10
377
 20
448
 0
VERTEX
 8
Poly
 10
379
 20
444
 0
VERTEX
 8
Poly
 10
380
 20
445
 0
SEQEND
 8
Poly
 0
LINE
 8
Line
 10
394
 20
446
 11
394
 21
444
 0
POLYLINE
 8
Poly
 66
 1
 0
VERTEX
 8
Poly
 10
383
 20
445
 0
VERTEX
 8
Poly
 10
384
 20
443
 0
VERTEX
 8
Poly
 10
385
 20
444
 0
VERTEX
 8
Poly
 10
384
 20
443
 0
SEQEND
 8
Poly
 0
LINE
 8
Line
 10
363
 20
446
 11
367
 21
445
 0
LINE
 8
Line
 10
375
 20
452
 11
369
 21
448
 0
LINE
 8
Line
 10
380
 20
445
 11
383
 21
445
 0
LINE
 8
Line
 10
394
 20
444
 11
390
 21
442
 0
LINE
 8
Line
 10
384
 20
443
 11
383
 21
445
 0
LINE
 8
Line
 10
406
 20
454
 11
406
 21
456
 0
POLYLINE
 8
Poly
 66
 1
 0
VERTEX
 8
Poly
 10
367
 20
445
 0
VERTEX
 8
Poly
 10
369
 20
441
 0
VERTEX
 8
Poly
 10
371
 20
443
 0
SEQEND
 8
Poly
 0
POLYLINE
 8
Poly
 66
 1
 0
VERTEX
 8
Poly
 10
370
 20
448
 0
VERTEX
 8
Poly
 10
369
 20
448
 0
VERTEX
 8
Poly
 10
371
 20
443
 0
SEQEND
 8
Poly
 0
POLYLINE
 8
Poly
 66
 1
 0
VERTEX
 8
Poly
 10
390
 20
442
 0
VERTEX
 8
Poly
 10
400
 20
444
 0
VERTEX
 8
Poly
 10
400
 20
445
 0
SEQEND
 8
Poly
 0
LINE
 8
Line
 10
406
 20
456
 11
406
 21
452
 0
LINE
 8
Line
 10
373
 20
443
 11
371
 21
443
 0
POLYLINE
 8
Poly
 66
 1
 0
VERTEX
 8
Poly
 10
373
 20
443
 0
VERTEX
 8
Poly
 10
370
 20
448
 0
VERTEX
 8
Poly
 10
374
 20
447
 0
VERTEX
 8
Poly
 10
373
 20
443
 0
SEQEND
 8
Poly
 0
POLYLINE
 8
Poly
 66
 1
 0
VERTEX
 8
Poly
 10
400
 20
445
 0
VERTEX
 8
Poly
 10
405
 20
449
 0
VERTEX
 8
Poly
 10
404
 20
452
 0
VERTEX
 8
Poly
 10
406
 20
452
 0
SEQEND
 8
Poly
 0
POLYLINE
 8
Poly
 66
 1
 0
VERTEX
 8
Poly
 10
373
 20
443
 0
VERTEX
 8
Poly
 10
373
 20
437
 0
VERTEX
 8
Poly
 10
370
 20
435
 0
SEQEND
 8
Poly
 0
LINE
 8
Line
 10
373
 20
439
 11
379
 21
439
 0
LINE
 8
Line
 10
370
 20
435
 11
365
 21
436
 0
LINE
 8
Line
 10
379
 20
439
 11
383
 21
436
 0
LINE
 8
Line
 10
365
 20
436
 11
362
 21
438
 0
LINE
 8
Line
 10
388
 20
441
 11
379
 21
433
 0
LINE
 8
Line
 10
362
 20
438
 11
358
 21
439
 0
POLYLINE
 8
Poly
 66
 1
 0
VERTEX
 8
Poly
 10
383
 20
436
 0
VERTEX
 8
Poly
 10
391
 20
433
 0
VERTEX
 8
Poly
 10
387
 20
436
 0
SEQEND
 8
Poly
 0
POLYLINE
 8
Poly
 66
 1
 0
VERTEX
 8
Poly
 10
379
 20
433
 0
VERTEX
 8
Poly
 10
377
 20
432
 0
VERTEX
 8
Poly
 10
377
 20
435
 0
SEQEND
 8
Poly
 0
POLYLINE
 8
Poly
 66
 1
 0
VERTEX
 8
Poly
 10
358
 20
439
 0
VERTEX
 8
Poly
 10
363
 20
431
 0
VERTEX
 8
Poly
 10
364
 20
434
 0
SEQEND
 8
Poly
 0
LINE
 8
Line
 10
387
 20
436
 11
388
 21
439
 0
LINE
 8
Line
 10
377
 20
435
 11
375
 21
435
 0
LINE
 8
Line
 10
364
 20
434
 11
366
 21
434
 0
POLYLINE
 8
Poly
 66
 1
 0
VERTEX
 8
Poly
 10
387
 20
440
 0
VERTEX
 8
Poly
 10
388
 20
439
 0
VERTEX
 8
Poly
 10
388
 20
441
 0
VERTEX
 8
Poly
 10
387
 20
440
 0
SEQEND
 8
Poly
 0
LINE
 8
Line
 10
375
 20
435
 11
374
 21
430
 0
LINE
 8
Line
 10
366
 20
434
 11
368
 21
432
 0
POLYLINE
 8
Poly
 66
 1
 0
VERTEX
 8
Poly
 10
373
 20
428
 0
VERTEX
 8
Poly
 10
374
 20
430
 0
VERTEX
 8
Poly
 10
373
 20
433
 0
SEQEND
 8
Poly
 0
POLYLINE
 8
Poly
 66
 1
 0
VERTEX
 8
Poly
 10
368
 20
432
 0
VERTEX
 8
Poly
 10
371
 20
431
 0
VERTEX
 8
Poly
 10
371
 20
433
 0
SEQEND
 8
Poly
 0
POLYLINE
 8
Poly
 66
 1
 0
VERTEX
 8
Poly
 10
362
 20
428
 0
VERTEX
 8
Poly
 10
380
 20
428
 0
VERTEX
 8
Poly
 10
379
 20
426
 0
SEQEND
 8
Poly
 0
LINE
 8
Line
 10
373
 20
433
 11
371
 21
433
 0
POLYLINE
 8
Poly
 66
 1
 0
VERTEX
 8
Poly
 10
379
 20
426
 0
VERTEX
 8
Poly
 10
374
 20
423
 0
VERTEX
 8
Poly
 10
373
 20
425
 0
SEQEND
 8
Poly
 0
LINE
 8
Line
 10
362
 20
428
 11
365
 21
426
 0
LINE
 8
Line
 10
373
 20
425
 11
368
 21
424
 0
LINE
 8
Line
 10
365
 20
426
 11
365
 21
424
 0
LINE
 8
Line
 10
368
 20
424
 11
368
 21
422
 0
LINE
 8
Line
 10
365
 20
424
 11
362
 21
422
 0
LINE
 8
Line
 10
368
 20
422
 11
372
 21
420
 0
LINE
 8
Line
 10
362
 20
422
 11
359
 21
421
 0
POLYLINE
 8
Poly
 66
 1
 0
VERTEX
 8
Poly
 10
372
 20
420
 0
VERTEX
 8
Poly
 10
374
 20
415
 0
VERTEX
 8
Poly
 10
373
 20
411
 0
SEQEND
 8
Poly
 0
LINE
 8
Line
 10
359
 20
421
 11
358
 21
411
 0
LINE
 8
Line
 10
373
 20
411
 11
375
 21
411
 0
LINE
 8
Line
 10
358
 20
411
 11
355
 21
410
 0
LINE
 8
Line
 10
375
 20
411
 11
379
 21
416
 0
POLYLINE
 8
Poly
 66
 1
 0
VERTEX
 8
Poly
 10
387
 20
417
 0
VERTEX
 8
Poly
 10
388
 20
418
 0
VERTEX
 8
Poly
 10
388
 20
422
 0
SEQEND
 8
Poly
 0
LINE
 8
Line
 10
355
 20
410
 11
355
 21
409
 0
POLYLINE
 8
Poly
 66
 1
 0
VERTEX
 8
Poly
 10
388
 20
422
 0
VERTEX
 8
Poly
 10
392
 20
426
 0
VERTEX
 8
Poly
 10
397
 20
426
 0
SEQEND
 8
Poly
 0
POLYLINE
 8
Poly
 66
 1
 0
VERTEX
 8
Poly
 10
349
 20
410
 0
VERTEX
 8
Poly
 10
349
 20
409
 0
VERTEX
 8
Poly
 10
363
 20
409
 0
VERTEX
 8
Poly
 10
362
 20
414
 0
SEQEND
 8
Poly
 0
LINE
 8
Line
 10
353
 20
409
 11
353
 21
413
 0
POLYLINE
 8
Poly
 66
 1
 0
VERTEX
 8
Poly
 10
397
 20
426
 0
VERTEX
 8
Poly
 10
401
 20
427
 0
VERTEX
 8
Poly
 10
405
 20
425
 0
SEQEND
 8
Poly
 0
POLYLINE
 8
Poly
 66
 1
 0
VERTEX
 8
Poly
 10
349
 20
410
 0
VERTEX
 8
Poly
 10
345
 20
410
 0
VERTEX
 8
Poly
 10
344
 20
411
 0
VERTEX
 8
Poly
 10
346
 20
413
 0
VERTEX
 8
Poly
 10
353
 20
413
 0
SEQEND
 8
Poly
 0
LINE
 8
Line
 10
405
 20
425
 11
407
 21
425
 0
LINE
 8
Line
 10
362
 20
414
 11
371
 21
414
 0
POLYLINE
 8
Poly
 66
 1
 0
VERTEX
 8
Poly
 10
407
 20
425
 0
VERTEX
 8
Poly
 10
407
 20
427
 0
VERTEX
 8
Poly
 10
408
 20
428
 0
VERTEX
 8
Poly
 10
415
 20
426
 0
VERTEX
 8
Poly
 10
415
 20
420
 0
SEQEND
 8
Poly
 0
LINE
 8
Line
 10
371
 20
414
 11
371
 21
412
 0
LINE
 8
Line
 10
415
 20
420
 11
416
 21
420
 0
POLYLINE
 8
Poly
 66
 1
 0
VERTEX
 8
Poly
 10
371
 20
412
 0
VERTEX
 8
Poly
 10
367
 20
409
 0
VERTEX
 8
Poly
 10
371
 20
409
 0
SEQEND
 8
Poly
 0
POLYLINE
 8
Poly
 66
 1
 0
VERTEX
 8
Poly
 10
417
 20
419
 0
VERTEX
 8
Poly
 10
416
 20
420
 0
VERTEX
 8
Poly
 10
418
 20
421
 0
SEQEND
 8
Poly
 0
LINE
 8
Line
 10
371
 20
409
 11
371
 21
407
 0
POLYLINE
 8
Poly
 66
 1
 0
VERTEX
 8
Poly
 10
406
 20
416
 0
VERTEX
 8
Poly
 10
417
 20
419
 0
VERTEX
 8
Poly
 10
418
 20
420
 0
VERTEX
 8
Poly
 10
418
 20
421
 0
SEQEND
 8
Poly
 0
POLYLINE
 8
Poly
 66
 1
 0
VERTEX
 8
Poly
 10
371
 20
407
 0
VERTEX
 8
Poly
 10
363
 20
406
 0
VERTEX
 8
Poly
 10
363
 20
402
 0
VERTEX
 8
Poly
 10
371
 20
404
 0
VERTEX
 8
Poly
 10
371
 20
405
 0
SEQEND
 8
Poly
 0
LINE
 8
Line
 10
406
 20
416
 11
406
 21
414
 0
LINE
 8
Line
 10
418
 20
420
 11
419
 21
420
 0
LINE
 8
Line
 10
371
 20
405
 11
374
 21
406
 0
LINE
 8
Line
 10
406
 20
414
 11
407
 21
414
 0
LINE
 8
Line
 10
374
 20
406
 11
378
 21
409
 0
LINE
 8
Line
 10
407
 20
414
 11
407
 21
413
 0
LINE
 8
Line
 10
378
 20
409
 11
378
 21
411
 0
POLYLINE
 8
Poly
 66
 1
 0
VERTEX
 8
Poly
 10
408
 20
413
 0
VERTEX
 8
Poly
 10
407
 20
413
 0
VERTEX
 8
Poly
 10
400
 20
410
 0
VERTEX
 8
Poly
 10
400
 20
411
 0
SEQEND
 8
Poly
 0
LINE
 8
Line
 10
378
 20
411
 11
382
 21
411
 0
LINE
 8
Line
 10
400
 20
411
 11
397
 21
411
 0
LINE
 8
Line
 10
382
 20
411
 11
382
 21
412
 0
LINE
 8
Line
 10
388
 20
409
 11
389
 21
411
 0
LINE
 8
Line
 10
382
 20
412
 11
393
 21
417
 0
POLYLINE
 8
Poly
 66
 1
 0
VERTEX
 8
Poly
 10
389
 20
411
 0
VERTEX
 8
Poly
 10
393
 20
415
 0
VERTEX
 8
Poly
 10
393
 20
417
 0
SEQEND
 8
Poly
 0
POLYLINE
 8
Poly
 66
 1
 0
VERTEX
 8
Poly
 10
408
 20
448
 0
VERTEX
 8
Poly
 10
411
 20
458
 0
VERTEX
 8
Poly
 10
415
 20
456
 0
SEQEND
 8
Poly
 0
POLYLINE
 8
Poly
 66
 1
 0
VERTEX
 8
Poly
 10
405
 20
444
 0
VERTEX
 8
Poly
 10
409
 20
444
 0
VERTEX
 8
Poly
 10
408
 20
448
 0
VERTEX
 8
Poly
 10
407
 20
448
 0
SEQEND
 8
Poly
 0
LINE
 8
Line
 10
409
 20
444
 11
405
 21
444
 0
LINE
 8
Line
 10
424
 20
457
 11
424
 21
456
 0
LINE
 8
Line
 10
405
 20
444
 11
405
 21
443
 0
POLYLINE
 8
Poly
 66
 1
 0
VERTEX
 8
Poly
 10
415
 20
454
 0
VERTEX
 8
Poly
 10
424
 20
456
 0
VERTEX
 8
Poly
 10
425
 20
456
 0
SEQEND
 8
Poly
 0
POLYLINE
 8
Poly
 66
 1
 0
VERTEX
 8
Poly
 10
404
 20
443
 0
VERTEX
 8
Poly
 10
405
 20
443
 0
VERTEX
 8
Poly
 10
423
 20
442
 0
VERTEX
 8
Poly
 10
424
 20
443
 0
VERTEX
 8
Poly
 10
424
 20
446
 0
SEQEND
 8
Poly
 0
POLYLINE
 8
Poly
 66
 1
 0
VERTEX
 8
Poly
 10
415
 20
454
 0
VERTEX
 8
Poly
 10
420
 20
450
 0
VERTEX
 8
Poly
 10
416
 20
449
 0
VERTEX
 8
Poly
 10
414
 20
447
 0
VERTEX
 8
Poly
 10
414
 20
445
 0
SEQEND
 8
Poly
 0
POLYLINE
 8
Poly
 66
 1
 0
VERTEX
 8
Poly
 10
424
 20
446
 0
VERTEX
 8
Poly
 10
421
 20
447
 0
VERTEX
 8
Poly
 10
414
 20
445
 0
SEQEND
 8
Poly
 0
POLYLINE
 8
Poly
 66
 1
 0
VERTEX
 8
Poly
 10
298
 20
457
 0
VERTEX
 8
Poly
 10
296
 20
453
 0
VERTEX
 8
Poly
 10
298
 20
457
 0
SEQEND
 8
Poly
 0
POLYLINE
 8
Poly
 66
 1
 0
VERTEX
 8
Poly
 10
213
 20
451
 0
VERTEX
 8
Poly
 10
209
 20
455
 0
VERTEX
 8
Poly
 10
208
 20
453
 0
SEQEND
 8
Poly
 0
LINE
 8
Line
 10
206
 20
451
 11
213
 21
451
 0
POLYLINE
 8
Poly
 66
 1
 0
VERTEX
 8
Poly
 10
208
 20
453
 0
VERTEX
 8
Poly
 10
206
 20
451
 0
VERTEX
 8
Poly
 10
204
 20
450
 0
SEQEND
 8
Poly
 0
POLYLINE
 8
Poly
 66
 1
 0
VERTEX
 8
Poly
 10
146
 20
454
 0
VERTEX
 8
Poly
 10
145
 20
453
 0
VERTEX
 8
Poly
 10
145
 20
380
 0
VERTEX
 8
Poly
 10
146
 20
379
 0
VERTEX
 8
Poly
 10
176
 20
379
 0
SEQEND
 8
Poly
 0
LINE
 8
Line
 10
177
 20
404
 11
170
 21
397
 0
POLYLINE
 8
Poly
 66
 1
 0
VERTEX
 8
Poly
 10
146
 20
454
 0
VERTEX
 8
Poly
 10
177
 20
454
 0
VERTEX
 8
Poly
 10
178
 20
453
 0
VERTEX
 8
Poly
 10
179
 20
410
 0
VERTEX
 8
Poly
 10
175
 20
406
 0
VERTEX
 8
Poly
 10
173
 20
407
 0
SEQEND
 8
Poly
 0
LINE
 8
Line
 10
170
 20
397
 11
164
 21
400
 0
LINE
 8
Line
 10
173
 20
407
 11
171
 21
407
 0
LINE
 8
Line
 10
163
 20
405
 11
164
 21
400
 0
LINE
 8
Line
 10
171
 20
407
 11
163
 21
405
 0
POLYLINE
 8
Poly
 66
 1
 0
VERTEX
 8
Poly
 10
180
 20
453
 0
VERTEX
 8
Poly
 10
189
 20
454
 0
VERTEX
 8
Poly
 10
198
 20
454
 0
SEQEND
 8
Poly
 0
POLYLINE
 8
Poly
 66
 1
 0
VERTEX
 8
Poly
 10
202
 20
432
 0
VERTEX
 8
Poly
 10
201
 20
431
 0
VERTEX
 8
Poly
 10
199
 20
431
 0
SEQEND
 8
Poly
 0
POLYLINE
 8
Poly
 66
 1
 0
VERTEX
 8
Poly
 10
180
 20
437
 0
VERTEX
 8
Poly
 10
180
 20
381
 0
VERTEX
 8
Poly
 10
184
 20
378
 0
VERTEX
 8
Poly
 10
200
 20
379
 0
VERTEX
 8
Poly
 10
201
 20
380
 0
VERTEX
 8
Poly
 10
198
 20
383
 0
SEQEND
 8
Poly
 0
LINE
 8
Line
 10
199
 20
431
 11
199
 21
429
 0
LINE
 8
Line
 10
198
 20
383
 11
198
 21
386
 0
POLYLINE
 8
Poly
 66
 1
 0
VERTEX
 8
Poly
 10
199
 20
429
 0
VERTEX
 8
Poly
 10
201
 20
429
 0
VERTEX
 8
Poly
 10
202
 20
428
 0
VERTEX
 8
Poly
 10
201
 20
387
 0
VERTEX
 8
Poly
 10
200
 20
386
 0
VERTEX
 8
Poly
 10
198
 20
386
 0
SEQEND
 8
Poly
 0
POLYLINE
 8
Poly
 66
 1
 0
VERTEX
 8
Poly
 10
293
 20
454
 0
VERTEX
 8
Poly
 10
289
 20
454
 0
VERTEX
 8
Poly
 10
287
 20
452
 0
VERTEX
 8
Poly
 10
286
 20
449
 0
VERTEX
 8
Poly
 10
286
 20
447
 0
VERTEX
 8
Poly
 10
289
 20
445
 0
VERTEX
 8
Poly
 10
292
 20
445
 0
SEQEND
 8
Poly
 0
POLYLINE
 8
Poly
 66
 1
 0
VERTEX
 8
Poly
 10
292
 20
445
 0
VERTEX
 8
Poly
 10
294
 20
443
 0
VERTEX
 8
Poly
 10
294
 20
446
 0
SEQEND
 8
Poly
 0
LINE
 8
Line
 10
293
 20
454
 11
294
 21
448
 0
LINE
 8
Line
 10
296
 20
448
 11
294
 21
446
 0
LINE
 8
Line
 10
294
 20
448
 11
296
 21
448
 0
POLYLINE
 8
Poly
 66
 1
 0
VERTEX
 8
Poly
 10
325
 20
451
 0
VERTEX
 8
Poly
 10
325
 20
453
 0
VERTEX
 8
Poly
 10
325
 20
451
 0
VERTEX
 8
Poly
 10
324
 20
450
 0
SEQEND
 8
Poly
 0
POLYLINE
 8
Poly
 66
 1
 0
VERTEX
 8
Poly
 10
364
 20
449
 0
VERTEX
 8
Poly
 10
364
 20
451
 0
VERTEX
 8
Poly
 10
366
 20
451
 0
SEQEND
 8
Poly
 0
LINE
 8
Line
 10
366
 20
449
 11
364
 21
449
 0
LINE
 8
Line
 10
366
 20
451
 11
366
 21
449
 0
POLYLINE
 8
Poly
 66
 1
 0
VERTEX
 8
Poly
 10
328
 20
448
 0
VERTEX
 8
Poly
 10
330
 20
446
 0
VERTEX
 8
Poly
 10
328
 20
448
 0
SEQEND
 8
Poly
 0
POLYLINE
 8
Poly
 66
 1
 0
VERTEX
 8
Poly
 10
347
 20
447
 0
VERTEX
 8
Poly
 10
347
 20
448
 0
VERTEX
 8
Poly
 10
346
 20
446
 0
VERTEX
 8
Poly
 10
347
 20
447
 0
VERTEX
 8
Poly
 10
346
 20
446
 0
SEQEND
 8
Poly
 0
POLYLINE
 8
Poly
 66
 1
 0
VERTEX
 8
Poly
 10
156
 20
445
 0
VERTEX
 8
Poly
 10
156
 20
447
 0
VERTEX
 8
Poly
 10
158
 20
447
 0
SEQEND
 8
Poly
 0
LINE
 8
Line
 10
158
 20
445
 11
156
 21
445
 0
LINE
 8
Line
 10
158
 20
447
 11
158
 21
445
 0
POLYLINE
 8
Poly
 66
 1
 0
VERTEX
 8
Poly
 10
194
 20
445
 0
VERTEX
 8
Poly
 10
194
 20
447
 0
VERTEX
 8
Poly
 10
196
 20
447
 0
SEQEND
 8
Poly
 0
LINE
 8
Line
 10
196
 20
445
 11
194
 21
445
 0
LINE
 8
Line
 10
196
 20
447
 11
196
 21
445
 0
POLYLINE
 8
Poly
 66
 1
 0
VERTEX
 8
Poly
 10
338
 20
445
 0
VERTEX
 8
Poly
 10
339
 20
446
 0
VERTEX
 8
Poly
 10
341
 20
446
 0
VERTEX
 8
Poly
 10
341
 20
445
 0
SEQEND
 8
Poly
 0
LINE
 8
Line
 10
342
 20
445
 11
338
 21
445
 0
LINE
 8
Line
 10
341
 20
446
 11
342
 21
445
 0
POLYLINE
 8
Poly
 66
 1
 0
VERTEX
 8
Poly
 10
277
 20
445
 0
VERTEX
 8
Poly
 10
276
 20
441
 0
VERTEX
 8
Poly
 10
279
 20
442
 0
VERTEX
 8
Poly
 10
277
 20
445
 0
SEQEND
 8
Poly
 0
POLYLINE
 8
Poly
 66
 1
 0
VERTEX
 8
Poly
 10
353
 20
445
 0
VERTEX
 8
Poly
 10
355
 20
442
 0
VERTEX
 8
Poly
 10
355
 20
445
 0
VERTEX
 8
Poly
 10
353
 20
445
 0
SEQEND
 8
Poly
 0
POLYLINE
 8
Poly
 66
 1
 0
VERTEX
 8
Poly
 10
282
 20
443
 0
VERTEX
 8
Poly
 10
282
 20
444
 0
VERTEX
 8
Poly
 10
283
 20
442
 0
VERTEX
 8
Poly
 10
282
 20
443
 0
VERTEX
 8
Poly
 10
283
 20
442
 0
SEQEND
 8
Poly
 0
POLYLINE
 8
Poly
 66
 1
 0
VERTEX
 8
Poly
 10
263
 20
442
 0
VERTEX
 8
Poly
 10
263
 20
440
 0
VERTEX
 8
Poly
 10
266
 20
440
 0
VERTEX
 8
Poly
 10
266
 20
442
 0
VERTEX
 8
Poly
 10
263
 20
442
 0
SEQEND
 8
Poly
 0
POLYLINE
 8
Poly
 66
 1
 0
VERTEX
 8
Poly
 10
155
 20
439
 0
VERTEX
 8
Poly
 10
155
 20
441
 0
VERTEX
 8
Poly
 10
157
 20
441
 0
SEQEND
 8
Poly
 0
LINE
 8
Line
 10
157
 20
439
 11
155
 21
439
 0
LINE
 8
Line
 10
157
 20
441
 11
157
 21
439
 0
LINE
 8
Line
 10
401
 20
441
 11
401
 21
439
 0
POLYLINE
 8
Poly
 66
 1
 0
VERTEX
 8
Poly
 10
401
 20
441
 0
VERTEX
 8
Poly
 10
404
 20
441
 0
VERTEX
 8
Poly
 10
403
 20
437
 0
SEQEND
 8
Poly
 0
POLYLINE
 8
Poly
 66
 1
 0
VERTEX
 8
Poly
 10
394
 20
434
 0
VERTEX
 8
Poly
 10
392
 20
439
 0
VERTEX
 8
Poly
 10
391
 20
439
 0
SEQEND
 8
Poly
 0
POLYLINE
 8
Poly
 66
 1
 0
VERTEX
 8
Poly
 10
397
 20
436
 0
VERTEX
 8
Poly
 10
397
 20
434
 0
VERTEX
 8
Poly
 10
403
 20
437
 0
VERTEX
 8
Poly
 10
412
 20
430
 0
VERTEX
 8
Poly
 10
419
 20
437
 0
SEQEND
 8
Poly
 0
LINE
 8
Line
 10
397
 20
434
 11
397
 21
436
 0
LINE
 8
Line
 10
395
 20
435
 11
395
 21
436
 0
POLYLINE
 8
Poly
 66
 1
 0
VERTEX
 8
Poly
 10
409
 20
438
 0
VERTEX
 8
Poly
 10
412
 20
435
 0
VERTEX
 8
Poly
 10
414
 20
439
 0
SEQEND
 8
Poly
 0
LINE
 8
Line
 10
397
 20
436
 11
395
 21
436
 0
POLYLINE
 8
Poly
 66
 1
 0
VERTEX
 8
Poly
 10
419
 20
438
 0
VERTEX
 8
Poly
 10
419
 20
437
 0
VERTEX
 8
Poly
 10
420
 20
437
 0
SEQEND
 8
Poly
 0
LINE
 8
Line
 10
414
 20
439
 11
419
 21
438
 0
POLYLINE
 8
Poly
 66
 1
 0
VERTEX
 8
Poly
 10
237
 20
439
 0
VERTEX
 8
Poly
 10
237
 20
437
 0
VERTEX
 8
Poly
 10
243
 20
437
 0
VERTEX
 8
Poly
 10
237
 20
439
 0
SEQEND
 8
Poly
 0
POLYLINE
 8
Poly
 66
 1
 0
VERTEX
 8
Poly
 10
252
 20
439
 0
VERTEX
 8
Poly
 10
255
 20
434
 0
VERTEX
 8
Poly
 10
252
 20
439
 0
SEQEND
 8
Poly
 0
POLYLINE
 8
Poly
 66
 1
 0
VERTEX
 8
Poly
 10
292
 20
438
 0
VERTEX
 8
Poly
 10
293
 20
439
 0
VERTEX
 8
Poly
 10
295
 20
438
 0
SEQEND
 8
Poly
 0
POLYLINE
 8
Poly
 66
 1
 0
VERTEX
 8
Poly
 10
293
 20
437
 0
VERTEX
 8
Poly
 10
292
 20
438
 0
VERTEX
 8
Poly
 10
293
 20
437
 0
SEQEND
 8
Poly
 0
POLYLINE
 8
Poly
 66
 1
 0
VERTEX
 8
Poly
 10
296
 20
437
 0
VERTEX
 8
Poly
 10
295
 20
438
 0
VERTEX
 8
Poly
 10
293
 20
437
 0
SEQEND
 8
Poly
 0
POLYLINE
 8
Poly
 66
 1
 0
VERTEX
 8
Poly
 10
302
 20
437
 0
VERTEX
 8
Poly
 10
296
 20
437
 0
VERTEX
 8
Poly
 10
302
 20
437
 0
SEQEND
 8
Poly
 0
POLYLINE
 8
Poly
 66
 1
 0
VERTEX
 8
Poly
 10
273
 20
437
 0
VERTEX
 8
Poly
 10
274
 20
438
 0
VERTEX
 8
Poly
 10
282
 20
438
 0
SEQEND
 8
Poly
 0
POLYLINE
 8
Poly
 66
 1
 0
VERTEX
 8
Poly
 10
273
 20
436
 0
VERTEX
 8
Poly
 10
273
 20
437
 0
VERTEX
 8
Poly
 10
272
 20
437
 0
SEQEND
 8
Poly
 0
LINE
 8
Line
 10
282
 20
438
 11
282
 21
437
 0
POLYLINE
 8
Poly
 66
 1
 0
VERTEX
 8
Poly
 10
273
 20
436
 0
VERTEX
 8
Poly
 10
284
 20
434
 0
VERTEX
 8
Poly
 10
282
 20
437
 0
SEQEND
 8
Poly
 0
POLYLINE
 8
Poly
 66
 1
 0
VERTEX
 8
Poly
 10
288
 20
436
 0
VERTEX
 8
Poly
 10
287
 20
438
 0
VERTEX
 8
Poly
 10
287
 20
436
 0
VERTEX
 8
Poly
 10
288
 20
436
 0
VERTEX
 8
Poly
 10
287
 20
436
 0
SEQEND
 8
Poly
 0
POLYLINE
 8
Poly
 66
 1
 0
VERTEX
 8
Poly
 10
307
 20
437
 0
VERTEX
 8
Poly
 10
306
 20
438
 0
VERTEX
 8
Poly
 10
310
 20
438
 0
VERTEX
 8
Poly
 10
307
 20
437
 0
SEQEND
 8
Poly
 0
POLYLINE
 8
Poly
 66
 1
 0
VERTEX
 8
Poly
 10
323
 20
438
 0
VERTEX
 8
Poly
 10
324
 20
435
 0
VERTEX
 8
Poly
 10
325
 20
436
 0
VERTEX
 8
Poly
 10
323
 20
438
 0
SEQEND
 8
Poly
 0
POLYLINE
 8
Poly
 66
 1
 0
VERTEX
 8
Poly
 10
423
 20
438
 0
VERTEX
 8
Poly
 10
425
 20
436
 0
VERTEX
 8
Poly
 10
423
 20
438
 0
SEQEND
 8
Poly
 0
POLYLINE
 8
Poly
 66
 1
 0
VERTEX
 8
Poly
 10
260
 20
437
 0
VERTEX
 8
Poly
 10
260
 20
435
 0
VERTEX
 8
Poly
 10
261
 20
434
 0
VERTEX
 8
Poly
 10
267
 20
434
 0
VERTEX
 8
Poly
 10
267
 20
435
 0
SEQEND
 8
Poly
 0
POLYLINE
 8
Poly
 66
 1
 0
VERTEX
 8
Poly
 10
260
 20
437
 0
VERTEX
 8
Poly
 10
269
 20
437
 0
VERTEX
 8
Poly
 10
267
 20
435
 0
SEQEND
 8
Poly
 0
POLYLINE
 8
Poly
 66
 1
 0
VERTEX
 8
Poly
 10
340
 20
436
 0
VERTEX
 8
Poly
 10
337
 20
437
 0
VERTEX
 8
Poly
 10
340
 20
436
 0
VERTEX
 8
Poly
 10
341
 20
435
 0
VERTEX
 8
Poly
 10
343
 20
434
 0
VERTEX
 8
Poly
 10
343
 20
435
 0
SEQEND
 8
Poly
 0
LINE
 8
Line
 10
341
 20
435
 11
344
 21
435
 0
POLYLINE
 8
Poly
 66
 1
 0
VERTEX
 8
Poly
 10
245
 20
436
 0
VERTEX
 8
Poly
 10
245
 20
434
 0
VERTEX
 8
Poly
 10
248
 20
434
 0
VERTEX
 8
Poly
 10
248
 20
436
 0
VERTEX
 8
Poly
 10
245
 20
436
 0
SEQEND
 8
Poly
 0
POLYLINE
 8
Poly
 66
 1
 0
VERTEX
 8
Poly
 10
304
 20
435
 0
VERTEX
 8
Poly
 10
305
 20
436
 0
VERTEX
 8
Poly
 10
304
 20
435
 0
VERTEX
 8
Poly
 10
303
 20
434
 0
SEQEND
 8
Poly
 0
POLYLINE
 8
Poly
 66
 1
 0
VERTEX
 8
Poly
 10
420
 20
434
 0
VERTEX
 8
Poly
 10
420
 20
435
 0
VERTEX
 8
Poly
 10
421
 20
433
 0
VERTEX
 8
Poly
 10
420
 20
434
 0
VERTEX
 8
Poly
 10
421
 20
433
 0
SEQEND
 8
Poly
 0
LINE
 8
Line
 10
208
 20
434
 11
209
 21
429
 0
LINE
 8
Line
 10
209
 20
429
 11
211
 21
429
 0
LINE
 8
Line
 10
205
 20
423
 11
204
 21
423
 0
POLYLINE
 8
Poly
 66
 1
 0
VERTEX
 8
Poly
 10
211
 20
429
 0
VERTEX
 8
Poly
 10
214
 20
432
 0
VERTEX
 8
Poly
 10
219
 20
428
 0
SEQEND
 8
Poly
 0
POLYLINE
 8
Poly
 66
 1
 0
VERTEX
 8
Poly
 10
205
 20
403
 0
VERTEX
 8
Poly
 10
207
 20
403
 0
VERTEX
 8
Poly
 10
207
 20
410
 0
SEQEND
 8
Poly
 0
POLYLINE
 8
Poly
 66
 1
 0
VERTEX
 8
Poly
 10
219
 20
428
 0
VERTEX
 8
Poly
 10
225
 20
430
 0
VERTEX
 8
Poly
 10
225
 20
427
 0
VERTEX
 8
Poly
 10
224
 20
426
 0
VERTEX
 8
Poly
 10
219
 20
424
 0
SEQEND
 8
Poly
 0
LINE
 8
Line
 10
207
 20
410
 11
209
 21
410
 0
LINE
 8
Line
 10
219
 20
424
 11
216
 21
427
 0
POLYLINE
 8
Poly
 66
 1
 0
VERTEX
 8
Poly
 10
209
 20
410
 0
VERTEX
 8
Poly
 10
209
 20
408
 0
VERTEX
 8
Poly
 10
215
 20
409
 0
SEQEND
 8
Poly
 0
LINE
 8
Line
 10
219
 20
424
 11
219
 21
422
 0
LINE
 8
Line
 10
219
 20
423
 11
214
 21
424
 0
LINE
 8
Line
 10
216
 20
427
 11
214
 21
427
 0
LINE
 8
Line
 10
215
 20
409
 11
215
 21
407
 0
POLYLINE
 8
Poly
 66
 1
 0
VERTEX
 8
Poly
 10
219
 20
422
 0
VERTEX
 8
Poly
 10
224
 20
419
 0
VERTEX
 8
Poly
 10
222
 20
420
 0
SEQEND
 8
Poly
 0
LINE
 8
Line
 10
214
 20
424
 11
214
 21
427
 0
POLYLINE
 8
Poly
 66
 1
 0
VERTEX
 8
Poly
 10
215
 20
407
 0
VERTEX
 8
Poly
 10
219
 20
407
 0
VERTEX
 8
Poly
 10
219
 20
413
 0
SEQEND
 8
Poly
 0
LINE
 8
Line
 10
222
 20
420
 11
220
 21
420
 0
POLYLINE
 8
Poly
 66
 1
 0
VERTEX
 8
Poly
 10
220
 20
414
 0
VERTEX
 8
Poly
 10
219
 20
413
 0
VERTEX
 8
Poly
 10
218
 20
415
 0
SEQEND
 8
Poly
 0
LINE
 8
Line
 10
216
 20
417
 11
220
 21
420
 0
POLYLINE
 8
Poly
 66
 1
 0
VERTEX
 8
Poly
 10
218
 20
415
 0
VERTEX
 8
Poly
 10
216
 20
417
 0
VERTEX
 8
Poly
 10
216
 20
418
 0
SEQEND
 8
Poly
 0
POLYLINE
 8
Poly
 66
 1
 0
VERTEX
 8
Poly
 10
216
 20
417
 0
VERTEX
 8
Poly
 10
211
 20
415
 0
VERTEX
 8
Poly
 10
211
 20
414
 0
VERTEX
 8
Poly
 10
213
 20
412
 0
VERTEX
 8
Poly
 10
215
 20
412
 0
VERTEX
 8
Poly
 10
215
 20
416
 0
SEQEND
 8
Poly
 0
POLYLINE
 8
Poly
 66
 1
 0
VERTEX
 8
Poly
 10
195
 20
431
 0
VERTEX
 8
Poly
 10
195
 20
433
 0
VERTEX
 8
Poly
 10
197
 20
433
 0
SEQEND
 8
Poly
 0
LINE
 8
Line
 10
197
 20
431
 11
195
 21
431
 0
LINE
 8
Line
 10
197
 20
433
 11
197
 21
431
 0
POLYLINE
 8
Poly
 66
 1
 0
VERTEX
 8
Poly
 10
315
 20
433
 0
VERTEX
 8
Poly
 10
317
 20
431
 0
VERTEX
 8
Poly
 10
315
 20
433
 0
SEQEND
 8
Poly
 0
POLYLINE
 8
Poly
 66
 1
 0
VERTEX
 8
Poly
 10
183
 20
428
 0
VERTEX
 8
Poly
 10
183
 20
430
 0
VERTEX
 8
Poly
 10
188
 20
429
 0
SEQEND
 8
Poly
 0
LINE
 8
Line
 10
188
 20
427
 11
183
 21
428
 0
LINE
 8
Line
 10
188
 20
429
 11
188
 21
427
 0
POLYLINE
 8
Poly
 66
 1
 0
VERTEX
 8
Poly
 10
235
 20
427
 0
VERTEX
 8
Poly
 10
234
 20
429
 0
VERTEX
 8
Poly
 10
239
 20
427
 0
SEQEND
 8
Poly
 0
LINE
 8
Line
 10
235
 20
427
 11
235
 21
425
 0
POLYLINE
 8
Poly
 66
 1
 0
VERTEX
 8
Poly
 10
235
 20
425
 0
VERTEX
 8
Poly
 10
232
 20
425
 0
VERTEX
 8
Poly
 10
231
 20
424
 0
VERTEX
 8
Poly
 10
231
 20
422
 0
VERTEX
 8
Poly
 10
235
 20
418
 0
VERTEX
 8
Poly
 10
238
 20
418
 0
SEQEND
 8
Poly
 0
LINE
 8
Line
 10
242
 20
419
 11
248
 21
416
 0
LINE
 8
Line
 10
238
 20
417
 11
238
 21
418
 0
LINE
 8
Line
 10
248
 20
416
 11
238
 21
417
 0
POLYLINE
 8
Poly
 66
 1
 0
VERTEX
 8
Poly
 10
273
 20
429
 0
VERTEX
 8
Poly
 10
273
 20
427
 0
VERTEX
 8
Poly
 10
276
 20
427
 0
VERTEX
 8
Poly
 10
276
 20
429
 0
VERTEX
 8
Poly
 10
273
 20
429
 0
SEQEND
 8
Poly
 0
POLYLINE
 8
Poly
 66
 1
 0
VERTEX
 8
Poly
 10
282
 20
429
 0
VERTEX
 8
Poly
 10
279
 20
426
 0
VERTEX
 8
Poly
 10
282
 20
426
 0
SEQEND
 8
Poly
 0
POLYLINE
 8
Poly
 66
 1
 0
VERTEX
 8
Poly
 10
282
 20
429
 0
VERTEX
 8
Poly
 10
298
 20
429
 0
VERTEX
 8
Poly
 10
298
 20
427
 0
VERTEX
 8
Poly
 10
294
 20
427
 0
SEQEND
 8
Poly
 0
LINE
 8
Line
 10
282
 20
426
 11
285
 21
425
 0
POLYLINE
 8
Poly
 66
 1
 0
VERTEX
 8
Poly
 10
294
 20
427
 0
VERTEX
 8
Poly
 10
291
 20
426
 0
VERTEX
 8
Poly
 10
286
 20
427
 0
SEQEND
 8
Poly
 0
POLYLINE
 8
Poly
 66
 1
 0
VERTEX
 8
Poly
 10
284
 20
424
 0
VERTEX
 8
Poly
 10
285
 20
425
 0
VERTEX
 8
Poly
 10
286
 20
427
 0
SEQEND
 8
Poly
 0
POLYLINE
 8
Poly
 66
 1
 0
VERTEX
 8
Poly
 10
304
 20
425
 0
VERTEX
 8
Poly
 10
306
 20
429
 0
VERTEX
 8
Poly
 10
312
 20
425
 0
SEQEND
 8
Poly
 0
LINE
 8
Line
 10
304
 20
425
 11
298
 21
421
 0
LINE
 8
Line
 10
298
 20
421
 11
298
 21
419
 0
LINE
 8
Line
 10
298
 20
419
 11
295
 21
419
 0
LINE
 8
Line
 10
295
 20
419
 11
294
 21
422
 0
LINE
 8
Line
 10
307
 20
422
 11
296
 21
417
 0
POLYLINE
 8
Poly
 66
 1
 0
VERTEX
 8
Poly
 10
294
 20
422
 0
VERTEX
 8
Poly
 10
288
 20
422
 0
VERTEX
 8
Poly
 10
286
 20
417
 0
VERTEX
 8
Poly
 10
293
 20
417
 0
SEQEND
 8
Poly
 0
LINE
 8
Line
 10
296
 20
417
 11
294
 21
415
 0
POLYLINE
 8
Poly
 66
 1
 0
VERTEX
 8
Poly
 10
292
 20
416
 0
VERTEX
 8
Poly
 10
293
 20
417
 0
VERTEX
 8
Poly
 10
294
 20
415
 0
SEQEND
 8
Poly
 0
POLYLINE
 8
Poly
 66
 1
 0
VERTEX
 8
Poly
 10
290
 20
415
 0
VERTEX
 8
Poly
 10
291
 20
416
 0
VERTEX
 8
Poly
 10
292
 20
416
 0
VERTEX
 8
Poly
 10
291
 20
416
 0
VERTEX
 8
Poly
 10
291
 20
415
 0
SEQEND
 8
Poly
 0
POLYLINE
 8
Poly
 66
 1
 0
VERTEX
 8
Poly
 10
292
 20
416
 0
VERTEX
 8
Poly
 10
292
 20
413
 0
VERTEX
 8
Poly
 10
290
 20
413
 0
VERTEX
 8
Poly
 10
292
 20
413
 0
SEQEND
 8
Poly
 0
POLYLINE
 8
Poly
 66
 1
 0
VERTEX
 8
Poly
 10
319
 20
429
 0
VERTEX
 8
Poly
 10
316
 20
426
 0
VERTEX
 8
Poly
 10
323
 20
426
 0
VERTEX
 8
Poly
 10
323
 20
428
 0
VERTEX
 8
Poly
 10
322
 20
429
 0
VERTEX
 8
Poly
 10
319
 20
429
 0
SEQEND
 8
Poly
 0
POLYLINE
 8
Poly
 66
 1
 0
VERTEX
 8
Poly
 10
334
 20
427
 0
VERTEX
 8
Poly
 10
329
 20
427
 0
VERTEX
 8
Poly
 10
329
 20
429
 0
VERTEX
 8
Poly
 10
333
 20
427
 0
SEQEND
 8
Poly
 0
POLYLINE
 8
Poly
 66
 1
 0
VERTEX
 8
Poly
 10
350
 20
424
 0
VERTEX
 8
Poly
 10
349
 20
429
 0
VERTEX
 8
Poly
 10
346
 20
426
 0
VERTEX
 8
Poly
 10
344
 20
426
 0
SEQEND
 8
Poly
 0
POLYLINE
 8
Poly
 66
 1
 0
VERTEX
 8
Poly
 10
350
 20
424
 0
VERTEX
 8
Poly
 10
356
 20
419
 0
VERTEX
 8
Poly
 10
350
 20
416
 0
VERTEX
 8
Poly
 10
349
 20
416
 0
VERTEX
 8
Poly
 10
348
 20
417
 0
VERTEX
 8
Poly
 10
349
 20
422
 0
VERTEX
 8
Poly
 10
346
 20
421
 0
VERTEX
 8
Poly
 10
345
 20
421
 0
SEQEND
 8
Poly
 0
LINE
 8
Line
 10
346
 20
421
 11
346
 21
420
 0
LINE
 8
Line
 10
343
 20
428
 11
340
 21
425
 0
LINE
 8
Line
 10
345
 20
423
 11
345
 21
421
 0
LINE
 8
Line
 10
340
 20
425
 11
345
 21
423
 0
POLYLINE
 8
Poly
 66
 1
 0
VERTEX
 8
Poly
 10
262
 20
423
 0
VERTEX
 8
Poly
 10
263
 20
423
 0
VERTEX
 8
Poly
 10
261
 20
428
 0
VERTEX
 8
Poly
 10
265
 20
427
 0
SEQEND
 8
Poly
 0
LINE
 8
Line
 10
265
 20
427
 11
265
 21
426
 0
LINE
 8
Line
 10
262
 20
425
 11
262
 21
423
 0
POLYLINE
 8
Poly
 66
 1
 0
VERTEX
 8
Poly
 10
262
 20
425
 0
VERTEX
 8
Poly
 10
265
 20
426
 0
VERTEX
 8
Poly
 10
266
 20
426
 0
SEQEND
 8
Poly
 0
POLYLINE
 8
Poly
 66
 1
 0
VERTEX
 8
Poly
 10
270
 20
422
 0
VERTEX
 8
Poly
 10
269
 20
428
 0
VERTEX
 8
Poly
 10
268
 20
424
 0
SEQEND
 8
Poly
 0
POLYLINE
 8
Poly
 66
 1
 0
VERTEX
 8
Poly
 10
270
 20
422
 0
VERTEX
 8
Poly
 10
266
 20
422
 0
VERTEX
 8
Poly
 10
268
 20
424
 0
SEQEND
 8
Poly
 0
POLYLINE
 8
Poly
 66
 1
 0
VERTEX
 8
Poly
 10
419
 20
427
 0
VERTEX
 8
Poly
 10
418
 20
428
 0
VERTEX
 8
Poly
 10
418
 20
426
 0
VERTEX
 8
Poly
 10
419
 20
427
 0
VERTEX
 8
Poly
 10
418
 20
426
 0
SEQEND
 8
Poly
 0
POLYLINE
 8
Poly
 66
 1
 0
VERTEX
 8
Poly
 10
209
 20
423
 0
VERTEX
 8
Poly
 10
210
 20
427
 0
VERTEX
 8
Poly
 10
212
 20
427
 0
SEQEND
 8
Poly
 0
LINE
 8
Line
 10
211
 20
423
 11
209
 21
423
 0
LINE
 8
Line
 10
212
 20
427
 11
211
 21
423
 0
POLYLINE
 8
Poly
 66
 1
 0
VERTEX
 8
Poly
 10
250
 20
427
 0
VERTEX
 8
Poly
 10
253
 20
423
 0
VERTEX
 8
Poly
 10
253
 20
422
 0
VERTEX
 8
Poly
 10
251
 20
420
 0
VERTEX
 8
Poly
 10
245
 20
424
 0
VERTEX
 8
Poly
 10
250
 20
427
 0
SEQEND
 8
Poly
 0
LINE
 8
Line
 10
245
 20
424
 11
244
 21
424
 0
POLYLINE
 8
Poly
 66
 1
 0
VERTEX
 8
Poly
 10
388
 20
427
 0
VERTEX
 8
Poly
 10
383
 20
426
 0
VERTEX
 8
Poly
 10
382
 20
425
 0
VERTEX
 8
Poly
 10
384
 20
422
 0
VERTEX
 8
Poly
 10
388
 20
427
 0
SEQEND
 8
Poly
 0
POLYLINE
 8
Poly
 66
 1
 0
VERTEX
 8
Poly
 10
183
 20
423
 0
VERTEX
 8
Poly
 10
183
 20
425
 0
VERTEX
 8
Poly
 10
185
 20
425
 0
SEQEND
 8
Poly
 0
LINE
 8
Line
 10
185
 20
423
 11
183
 21
423
 0
LINE
 8
Line
 10
185
 20
425
 11
185
 21
423
 0
POLYLINE
 8
Poly
 66
 1
 0
VERTEX
 8
Poly
 10
331
 20
425
 0
VERTEX
 8
Poly
 10
332
 20
421
 0
VERTEX
 8
Poly
 10
331
 20
420
 0
VERTEX
 8
Poly
 10
327
 20
421
 0
VERTEX
 8
Poly
 10
331
 20
425
 0
SEQEND
 8
Poly
 0
LINE
 8
Line
 10
327
 20
421
 11
326
 21
421
 0
POLYLINE
 8
Poly
 66
 1
 0
VERTEX
 8
Poly
 10
340
 20
419
 0
VERTEX
 8
Poly
 10
335
 20
419
 0
VERTEX
 8
Poly
 10
336
 20
425
 0
VERTEX
 8
Poly
 10
342
 20
419
 0
SEQEND
 8
Poly
 0
LINE
 8
Line
 10
342
 20
419
 11
345
 21
417
 0
LINE
 8
Line
 10
340
 20
419
 11
340
 21
417
 0
POLYLINE
 8
Poly
 66
 1
 0
VERTEX
 8
Poly
 10
345
 20
417
 0
VERTEX
 8
Poly
 10
341
 20
407
 0
VERTEX
 8
Poly
 10
342
 20
405
 0
SEQEND
 8
Poly
 0
LINE
 8
Line
 10
340
 20
417
 11
338
 21
417
 0
LINE
 8
Line
 10
342
 20
405
 11
344
 21
405
 0
LINE
 8
Line
 10
338
 20
417
 11
338
 21
413
 0
POLYLINE
 8
Poly
 66
 1
 0
VERTEX
 8
Poly
 10
344
 20
405
 0
VERTEX
 8
Poly
 10
348
 20
407
 0
VERTEX
 8
Poly
 10
342
 20
397
 0
SEQEND
 8
Poly
 0
LINE
 8
Line
 10
338
 20
413
 11
336
 21
413
 0
LINE
 8
Line
 10
342
 20
397
 11
338
 21
407
 0
LINE
 8
Line
 10
338
 20
407
 11
329
 21
405
 0
LINE
 8
Line
 10
327
 20
412
 11
327
 21
410
 0
POLYLINE
 8
Poly
 66
 1
 0
VERTEX
 8
Poly
 10
330
 20
403
 0
VERTEX
 8
Poly
 10
329
 20
405
 0
VERTEX
 8
Poly
 10
324
 20
409
 0
VERTEX
 8
Poly
 10
327
 20
410
 0
SEQEND
 8
Poly
 0
POLYLINE
 8
Poly
 66
 1
 0
VERTEX
 8
Poly
 10
330
 20
402
 0
VERTEX
 8
Poly
 10
330
 20
403
 0
VERTEX
 8
Poly
 10
337
 20
403
 0
SEQEND
 8
Poly
 0
POLYLINE
 8
Poly
 66
 1
 0
VERTEX
 8
Poly
 10
334
 20
399
 0
VERTEX
 8
Poly
 10
334
 20
395
 0
VERTEX
 8
Poly
 10
330
 20
402
 0
VERTEX
 8
Poly
 10
329
 20
402
 0
SEQEND
 8
Poly
 0
LINE
 8
Line
 10
334
 20
395
 11
334
 21
399
 0
POLYLINE
 8
Poly
 66
 1
 0
VERTEX
 8
Poly
 10
337
 20
401
 0
VERTEX
 8
Poly
 10
338
 20
399
 0
VERTEX
 8
Poly
 10
334
 20
399
 0
SEQEND
 8
Poly
 0
POLYLINE
 8
Poly
 66
 1
 0
VERTEX
 8
Poly
 10
276
 20
421
 0
VERTEX
 8
Poly
 10
278
 20
421
 0
VERTEX
 8
Poly
 10
275
 20
424
 0
VERTEX
 8
Poly
 10
274
 20
419
 0
SEQEND
 8
Poly
 0
POLYLINE
 8
Poly
 66
 1
 0
VERTEX
 8
Poly
 10
274
 20
419
 0
VERTEX
 8
Poly
 10
266
 20
419
 0
VERTEX
 8
Poly
 10
267
 20
417
 0
SEQEND
 8
Poly
 0
POLYLINE
 8
Poly
 66
 1
 0
VERTEX
 8
Poly
 10
276
 20
421
 0
VERTEX
 8
Poly
 10
276
 20
419
 0
VERTEX
 8
Poly
 10
279
 20
419
 0
VERTEX
 8
Poly
 10
283
 20
416
 0
VERTEX
 8
Poly
 10
281
 20
415
 0
SEQEND
 8
Poly
 0
POLYLINE
 8
Poly
 66
 1
 0
VERTEX
 8
Poly
 10
267
 20
417
 0
VERTEX
 8
Poly
 10
272
 20
415
 0
VERTEX
 8
Poly
 10
276
 20
416
 0
SEQEND
 8
Poly
 0
LINE
 8
Line
 10
277
 20
414
 11
281
 21
415
 0
POLYLINE
 8
Poly
 66
 1
 0
VERTEX
 8
Poly
 10
276
 20
416
 0
VERTEX
 8
Poly
 10
277
 20
414
 0
VERTEX
 8
Poly
 10
278
 20
413
 0
SEQEND
 8
Poly
 0
POLYLINE
 8
Poly
 66
 1
 0
VERTEX
 8
Poly
 10
392
 20
420
 0
VERTEX
 8
Poly
 10
392
 20
422
 0
VERTEX
 8
Poly
 10
399
 20
424
 0
VERTEX
 8
Poly
 10
403
 20
424
 0
SEQEND
 8
Poly
 0
LINE
 8
Line
 10
403
 20
424
 11
406
 21
420
 0
LINE
 8
Line
 10
392
 20
420
 11
403
 21
419
 0
LINE
 8
Line
 10
406
 20
420
 11
408
 21
420
 0
POLYLINE
 8
Poly
 66
 1
 0
VERTEX
 8
Poly
 10
403
 20
419
 0
VERTEX
 8
Poly
 10
402
 20
418
 0
VERTEX
 8
Poly
 10
400
 20
415
 0
VERTEX
 8
Poly
 10
400
 20
413
 0
SEQEND
 8
Poly
 0
LINE
 8
Line
 10
406
 20
420
 11
406
 21
418
 0
LINE
 8
Line
 10
406
 20
419
 11
403
 21
419
 0
LINE
 8
Line
 10
408
 20
420
 11
408
 21
418
 0
LINE
 8
Line
 10
404
 20
419
 11
400
 21
413
 0
LINE
 8
Line
 10
406
 20
418
 11
408
 21
418
 0
POLYLINE
 8
Poly
 66
 1
 0
VERTEX
 8
Poly
 10
411
 20
420
 0
VERTEX
 8
Poly
 10
411
 20
422
 0
VERTEX
 8
Poly
 10
413
 20
422
 0
SEQEND
 8
Poly
 0
LINE
 8
Line
 10
413
 20
420
 11
411
 21
420
 0
LINE
 8
Line
 10
413
 20
422
 11
413
 21
420
 0
LINE
 8
Line
 10
306
 20
415
 11
310
 21
415
 0
LINE
 8
Line
 10
310
 20
415
 11
312
 21
413
 0
LINE
 8
Line
 10
312
 20
413
 11
314
 21
413
 0
LINE
 8
Line
 10
305
 20
413
 11
308
 21
413
 0
POLYLINE
 8
Poly
 66
 1
 0
VERTEX
 8
Poly
 10
314
 20
413
 0
VERTEX
 8
Poly
 10
314
 20
416
 0
VERTEX
 8
Poly
 10
315
 20
417
 0
VERTEX
 8
Poly
 10
317
 20
417
 0
SEQEND
 8
Poly
 0
LINE
 8
Line
 10
308
 20
413
 11
310
 21
410
 0
LINE
 8
Line
 10
317
 20
417
 11
320
 21
418
 0
LINE
 8
Line
 10
319
 20
415
 11
318
 21
415
 0
LINE
 8
Line
 10
318
 20
411
 11
310
 21
410
 0
LINE
 8
Line
 10
318
 20
415
 11
318
 21
411
 0
POLYLINE
 8
Poly
 66
 1
 0
VERTEX
 8
Poly
 10
362
 20
418
 0
VERTEX
 8
Poly
 10
362
 20
420
 0
VERTEX
 8
Poly
 10
364
 20
420
 0
SEQEND
 8
Poly
 0
LINE
 8
Line
 10
364
 20
418
 11
362
 21
418
 0
LINE
 8
Line
 10
364
 20
420
 11
364
 21
418
 0
POLYLINE
 8
Poly
 66
 1
 0
VERTEX
 8
Poly
 10
254
 20
419
 0
VERTEX
 8
Poly
 10
255
 20
413
 0
VERTEX
 8
Poly
 10
252
 20
416
 0
VERTEX
 8
Poly
 10
253
 20
416
 0
VERTEX
 8
Poly
 10
254
 20
419
 0
SEQEND
 8
Poly
 0
POLYLINE
 8
Poly
 66
 1
 0
VERTEX
 8
Poly
 10
423
 20
419
 0
VERTEX
 8
Poly
 10
419
 20
418
 0
VERTEX
 8
Poly
 10
421
 20
414
 0
SEQEND
 8
Poly
 0
POLYLINE
 8
Poly
 66
 1
 0
VERTEX
 8
Poly
 10
423
 20
419
 0
VERTEX
 8
Poly
 10
425
 20
415
 0
VERTEX
 8
Poly
 10
422
 20
415
 0
VERTEX
 8
Poly
 10
421
 20
414
 0
VERTEX
 8
Poly
 10
422
 20
415
 0
SEQEND
 8
Poly
 0
POLYLINE
 8
Poly
 66
 1
 0
VERTEX
 8
Poly
 10
329
 20
416
 0
VERTEX
 8
Poly
 10
330
 20
418
 0
VERTEX
 8
Poly
 10
332
 20
416
 0
SEQEND
 8
Poly
 0
POLYLINE
 8
Poly
 66
 1
 0
VERTEX
 8
Poly
 10
330
 20
416
 0
VERTEX
 8
Poly
 10
331
 20
417
 0
VERTEX
 8
Poly
 10
333
 20
418
 0
SEQEND
 8
Poly
 0
POLYLINE
 8
Poly
 66
 1
 0
VERTEX
 8
Poly
 10
329
 20
416
 0
VERTEX
 8
Poly
 10
332
 20
416
 0
VERTEX
 8
Poly
 10
333
 20
417
 0
VERTEX
 8
Poly
 10
333
 20
418
 0
SEQEND
 8
Poly
 0
LINE
 8
Line
 10
333
 20
417
 11
334
 21
417
 0
POLYLINE
 8
Poly
 66
 1
 0
VERTEX
 8
Poly
 10
237
 20
414
 0
VERTEX
 8
Poly
 10
236
 20
416
 0
VERTEX
 8
Poly
 10
235
 20
414
 0
SEQEND
 8
Poly
 0
POLYLINE
 8
Poly
 66
 1
 0
VERTEX
 8
Poly
 10
237
 20
414
 0
VERTEX
 8
Poly
 10
246
 20
413
 0
VERTEX
 8
Poly
 10
246
 20
411
 0
SEQEND
 8
Poly
 0
POLYLINE
 8
Poly
 66
 1
 0
VERTEX
 8
Poly
 10
235
 20
414
 0
VERTEX
 8
Poly
 10
233
 20
414
 0
VERTEX
 8
Poly
 10
232
 20
413
 0
VERTEX
 8
Poly
 10
234
 20
408
 0
VERTEX
 8
Poly
 10
239
 20
410
 0
VERTEX
 8
Poly
 10
239
 20
405
 0
VERTEX
 8
Poly
 10
244
 20
406
 0
SEQEND
 8
Poly
 0
LINE
 8
Line
 10
248
 20
411
 11
248
 21
413
 0
LINE
 8
Line
 10
244
 20
411
 11
244
 21
409
 0
POLYLINE
 8
Poly
 66
 1
 0
VERTEX
 8
Poly
 10
244
 20
406
 0
VERTEX
 8
Poly
 10
249
 20
404
 0
VERTEX
 8
Poly
 10
252
 20
407
 0
VERTEX
 8
Poly
 10
244
 20
409
 0
SEQEND
 8
Poly
 0
LINE
 8
Line
 10
248
 20
413
 11
250
 21
411
 0
LINE
 8
Line
 10
244
 20
411
 11
251
 21
411
 0
POLYLINE
 8
Poly
 66
 1
 0
VERTEX
 8
Poly
 10
166
 20
410
 0
VERTEX
 8
Poly
 10
163
 20
413
 0
VERTEX
 8
Poly
 10
163
 20
415
 0
VERTEX
 8
Poly
 10
176
 20
415
 0
SEQEND
 8
Poly
 0
LINE
 8
Line
 10
176
 20
415
 11
176
 21
413
 0
LINE
 8
Line
 10
166
 20
410
 11
168
 21
410
 0
POLYLINE
 8
Poly
 66
 1
 0
VERTEX
 8
Poly
 10
176
 20
413
 0
VERTEX
 8
Poly
 10
169
 20
413
 0
VERTEX
 8
Poly
 10
168
 20
412
 0
VERTEX
 8
Poly
 10
168
 20
410
 0
SEQEND
 8
Poly
 0
POLYLINE
 8
Poly
 66
 1
 0
VERTEX
 8
Poly
 10
410
 20
413
 0
VERTEX
 8
Poly
 10
413
 20
415
 0
VERTEX
 8
Poly
 10
417
 20
415
 0
VERTEX
 8
Poly
 10
419
 20
412
 0
VERTEX
 8
Poly
 10
419
 20
408
 0
SEQEND
 8
Poly
 0
LINE
 8
Line
 10
410
 20
413
 11
408
 21
405
 0
POLYLINE
 8
Poly
 66
 1
 0
VERTEX
 8
Poly
 10
407
 20
400
 0
VERTEX
 8
Poly
 10
410
 20
398
 0
VERTEX
 8
Poly
 10
417
 20
401
 0
SEQEND
 8
Poly
 0
POLYLINE
 8
Poly
 66
 1
 0
VERTEX
 8
Poly
 10
419
 20
408
 0
VERTEX
 8
Poly
 10
426
 20
405
 0
VERTEX
 8
Poly
 10
420
 20
397
 0
VERTEX
 8
Poly
 10
419
 20
401
 0
SEQEND
 8
Poly
 0
POLYLINE
 8
Poly
 66
 1
 0
VERTEX
 8
Poly
 10
415
 20
402
 0
VERTEX
 8
Poly
 10
417
 20
402
 0
VERTEX
 8
Poly
 10
417
 20
401
 0
VERTEX
 8
Poly
 10
419
 20
401
 0
VERTEX
 8
Poly
 10
422
 20
404
 0
SEQEND
 8
Poly
 0
LINE
 8
Line
 10
422
 20
404
 11
422
 21
406
 0
LINE
 8
Line
 10
415
 20
405
 11
415
 21
402
 0
LINE
 8
Line
 10
422
 20
406
 11
415
 21
405
 0
POLYLINE
 8
Poly
 66
 1
 0
VERTEX
 8
Poly
 10
158
 20
412
 0
VERTEX
 8
Poly
 10
158
 20
414
 0
VERTEX
 8
Poly
 10
160
 20
414
 0
SEQEND
 8
Poly
 0
LINE
 8
Line
 10
160
 20
412
 11
158
 21
412
 0
LINE
 8
Line
 10
160
 20
414
 11
160
 21
412
 0
POLYLINE
 8
Poly
 66
 1
 0
VERTEX
 8
Poly
 10
265
 20
412
 0
VERTEX
 8
Poly
 10
264
 20
414
 0
VERTEX
 8
Poly
 10
262
 20
409
 0
VERTEX
 8
Poly
 10
264
 20
408
 0
VERTEX
 8
Poly
 10
267
 20
411
 0
VERTEX
 8
Poly
 10
265
 20
412
 0
SEQEND
 8
Poly
 0
POLYLINE
 8
Poly
 66
 1
 0
VERTEX
 8
Poly
 10
271
 20
411
 0
VERTEX
 8
Poly
 10
270
 20
413
 0
VERTEX
 8
Poly
 10
272
 20
409
 0
SEQEND
 8
Poly
 0
POLYLINE
 8
Poly
 66
 1
 0
VERTEX
 8
Poly
 10
271
 20
411
 0
VERTEX
 8
Poly
 10
273
 20
411
 0
VERTEX
 8
Poly
 10
274
 20
410
 0
VERTEX
 8
Poly
 10
274
 20
407
 0
VERTEX
 8
Poly
 10
272
 20
409
 0
SEQEND
 8
Poly
 0
POLYLINE
 8
Poly
 66
 1
 0
VERTEX
 8
Poly
 10
192
 20
409
 0
VERTEX
 8
Poly
 10
192
 20
411
 0
VERTEX
 8
Poly
 10
194
 20
411
 0
SEQEND
 8
Poly
 0
LINE
 8
Line
 10
194
 20
409
 11
192
 21
409
 0
LINE
 8
Line
 10
194
 20
411
 11
194
 21
409
 0
POLYLINE
 8
Poly
 66
 1
 0
VERTEX
 8
Poly
 10
282
 20
411
 0
VERTEX
 8
Poly
 10
285
 20
407
 0
VERTEX
 8
Poly
 10
280
 20
407
 0
VERTEX
 8
Poly
 10
282
 20
411
 0
SEQEND
 8
Poly
 0
POLYLINE
 8
Poly
 66
 1
 0
VERTEX
 8
Poly
 10
331
 20
409
 0
VERTEX
 8
Poly
 10
331
 20
411
 0
VERTEX
 8
Poly
 10
339
 20
411
 0
SEQEND
 8
Poly
 0
LINE
 8
Line
 10
339
 20
409
 11
331
 21
409
 0
LINE
 8
Line
 10
339
 20
411
 11
339
 21
409
 0
POLYLINE
 8
Poly
 66
 1
 0
VERTEX
 8
Poly
 10
226
 20
408
 0
VERTEX
 8
Poly
 10
227
 20
409
 0
VERTEX
 8
Poly
 10
226
 20
407
 0
VERTEX
 8
Poly
 10
226
 20
408
 0
VERTEX
 8
Poly
 10
225
 20
408
 0
SEQEND
 8
Poly
 0
LINE
 8
Line
 10
301
 20
407
 11
293
 21
403
 0
LINE
 8
Line
 10
304
 20
401
 11
301
 21
402
 0
POLYLINE
 8
Poly
 66
 1
 0
VERTEX
 8
Poly
 10
302
 20
395
 0
VERTEX
 8
Poly
 10
296
 20
401
 0
VERTEX
 8
Poly
 10
293
 20
403
 0
VERTEX
 8
Poly
 10
292
 20
403
 0
SEQEND
 8
Poly
 0
LINE
 8
Line
 10
301
 20
402
 11
301
 21
404
 0
LINE
 8
Line
 10
296
 20
401
 11
302
 21
395
 0
POLYLINE
 8
Poly
 66
 1
 0
VERTEX
 8
Poly
 10
307
 20
397
 0
VERTEX
 8
Poly
 10
311
 20
392
 0
VERTEX
 8
Poly
 10
309
 20
394
 0
SEQEND
 8
Poly
 0
POLYLINE
 8
Poly
 66
 1
 0
VERTEX
 8
Poly
 10
302
 20
395
 0
VERTEX
 8
Poly
 10
300
 20
393
 0
VERTEX
 8
Poly
 10
302
 20
392
 0
VERTEX
 8
Poly
 10
306
 20
394
 0
VERTEX
 8
Poly
 10
309
 20
394
 0
SEQEND
 8
Poly
 0
POLYLINE
 8
Poly
 66
 1
 0
VERTEX
 8
Poly
 10
319
 20
406
 0
VERTEX
 8
Poly
 10
318
 20
409
 0
VERTEX
 8
Poly
 10
312
 20
407
 0
SEQEND
 8
Poly
 0
LINE
 8
Line
 10
312
 20
407
 11
312
 21
406
 0
LINE
 8
Line
 10
311
 20
403
 11
312
 21
406
 0
POLYLINE
 8
Poly
 66
 1
 0
VERTEX
 8
Poly
 10
255
 20
406
 0
VERTEX
 8
Poly
 10
255
 20
408
 0
VERTEX
 8
Poly
 10
255
 20
406
 0
VERTEX
 8
Poly
 10
254
 20
406
 0
SEQEND
 8
Poly
 0
POLYLINE
 8
Poly
 66
 1
 0
VERTEX
 8
Poly
 10
371
 20
399
 0
VERTEX
 8
Poly
 10
376
 20
406
 0
VERTEX
 8
Poly
 10
382
 20
408
 0
VERTEX
 8
Poly
 10
386
 20
408
 0
SEQEND
 8
Poly
 0
LINE
 8
Line
 10
386
 20
408
 11
386
 21
407
 0
LINE
 8
Line
 10
378
 20
404
 11
371
 21
399
 0
POLYLINE
 8
Poly
 66
 1
 0
VERTEX
 8
Poly
 10
378
 20
404
 0
VERTEX
 8
Poly
 10
386
 20
407
 0
VERTEX
 8
Poly
 10
387
 20
407
 0
SEQEND
 8
Poly
 0
POLYLINE
 8
Poly
 66
 1
 0
VERTEX
 8
Poly
 10
403
 20
406
 0
VERTEX
 8
Poly
 10
399
 20
406
 0
VERTEX
 8
Poly
 10
398
 20
408
 0
VERTEX
 8
Poly
 10
389
 20
405
 0
SEQEND
 8
Poly
 0
POLYLINE
 8
Poly
 66
 1
 0
VERTEX
 8
Poly
 10
389
 20
405
 0
VERTEX
 8
Poly
 10
386
 20
402
 0
VERTEX
 8
Poly
 10
388
 20
400
 0
SEQEND
 8
Poly
 0
POLYLINE
 8
Poly
 66
 1
 0
VERTEX
 8
Poly
 10
286
 20
401
 0
VERTEX
 8
Poly
 10
278
 20
405
 0
VERTEX
 8
Poly
 10
277
 20
407
 0
VERTEX
 8
Poly
 10
275
 20
401
 0
SEQEND
 8
Poly
 0
LINE
 8
Line
 10
275
 20
401
 11
274
 21
401
 0
LINE
 8
Line
 10
286
 20
401
 11
288
 21
401
 0
POLYLINE
 8
Poly
 66
 1
 0
VERTEX
 8
Poly
 10
273
 20
400
 0
VERTEX
 8
Poly
 10
274
 20
401
 0
VERTEX
 8
Poly
 10
271
 20
404
 0
SEQEND
 8
Poly
 0
LINE
 8
Line
 10
288
 20
401
 11
288
 21
400
 0
POLYLINE
 8
Poly
 66
 1
 0
VERTEX
 8
Poly
 10
275
 20
399
 0
VERTEX
 8
Poly
 10
273
 20
400
 0
VERTEX
 8
Poly
 10
266
 20
401
 0
SEQEND
 8
Poly
 0
LINE
 8
Line
 10
271
 20
404
 11
264
 21
401
 0
POLYLINE
 8
Poly
 66
 1
 0
VERTEX
 8
Poly
 10
286
 20
399
 0
VERTEX
 8
Poly
 10
288
 20
400
 0
VERTEX
 8
Poly
 10
289
 20
400
 0
SEQEND
 8
Poly
 0
LINE
 8
Line
 10
275
 20
399
 11
275
 21
397
 0
LINE
 8
Line
 10
266
 20
401
 11
264
 21
397
 0
POLYLINE
 8
Poly
 66
 1
 0
VERTEX
 8
Poly
 10
264
 20
401
 0
VERTEX
 8
Poly
 10
261
 20
401
 0
VERTEX
 8
Poly
 10
263
 20
399
 0
SEQEND
 8
Poly
 0
POLYLINE
 8
Poly
 66
 1
 0
VERTEX
 8
Poly
 10
286
 20
399
 0
VERTEX
 8
Poly
 10
286
 20
397
 0
VERTEX
 8
Poly
 10
285
 20
396
 0
VERTEX
 8
Poly
 10
278
 20
396
 0
SEQEND
 8
Poly
 0
POLYLINE
 8
Poly
 66
 1
 0
VERTEX
 8
Poly
 10
275
 20
397
 0
VERTEX
 8
Poly
 10
268
 20
397
 0
VERTEX
 8
Poly
 10
263
 20
396
 0
VERTEX
 8
Poly
 10
264
 20
397
 0
VERTEX
 8
Poly
 10
263
 20
399
 0
SEQEND
 8
Poly
 0
LINE
 8
Line
 10
278
 20
396
 11
276
 21
394
 0
LINE
 8
Line
 10
263
 20
396
 11
269
 21
393
 0
POLYLINE
 8
Poly
 66
 1
 0
VERTEX
 8
Poly
 10
276
 20
393
 0
VERTEX
 8
Poly
 10
276
 20
394
 0
VERTEX
 8
Poly
 10
272
 20
394
 0
SEQEND
 8
Poly
 0
LINE
 8
Line
 10
269
 20
393
 11
269
 21
391
 0
POLYLINE
 8
Poly
 66
 1
 0
VERTEX
 8
Poly
 10
275
 20
390
 0
VERTEX
 8
Poly
 10
276
 20
393
 0
VERTEX
 8
Poly
 10
285
 20
389
 0
VERTEX
 8
Poly
 10
280
 20
384
 0
SEQEND
 8
Poly
 0
LINE
 8
Line
 10
272
 20
394
 11
273
 21
389
 0
POLYLINE
 8
Poly
 66
 1
 0
VERTEX
 8
Poly
 10
269
 20
391
 0
VERTEX
 8
Poly
 10
259
 20
390
 0
VERTEX
 8
Poly
 10
258
 20
385
 0
VERTEX
 8
Poly
 10
259
 20
384
 0
VERTEX
 8
Poly
 10
262
 20
384
 0
SEQEND
 8
Poly
 0
LINE
 8
Line
 10
275
 20
384
 11
282
 21
384
 0
LINE
 8
Line
 10
275
 20
390
 11
279
 21
390
 0
LINE
 8
Line
 10
273
 20
389
 11
269
 21
389
 0
LINE
 8
Line
 10
262
 20
384
 11
262
 21
382
 0
POLYLINE
 8
Poly
 66
 1
 0
VERTEX
 8
Poly
 10
282
 20
381
 0
VERTEX
 8
Poly
 10
282
 20
384
 0
VERTEX
 8
Poly
 10
286
 20
386
 0
SEQEND
 8
Poly
 0
LINE
 8
Line
 10
275
 20
384
 11
275
 21
385
 0
POLYLINE
 8
Poly
 66
 1
 0
VERTEX
 8
Poly
 10
279
 20
390
 0
VERTEX
 8
Poly
 10
276
 20
386
 0
VERTEX
 8
Poly
 10
275
 20
385
 0
SEQEND
 8
Poly
 0
POLYLINE
 8
Poly
 66
 1
 0
VERTEX
 8
Poly
 10
264
 20
380
 0
VERTEX
 8
Poly
 10
269
 20
386
 0
VERTEX
 8
Poly
 10
272
 20
383
 0
VERTEX
 8
Poly
 10
271
 20
383
 0
SEQEND
 8
Poly
 0
POLYLINE
 8
Poly
 66
 1
 0
VERTEX
 8
Poly
 10
262
 20
382
 0
VERTEX
 8
Poly
 10
259
 20
382
 0
VERTEX
 8
Poly
 10
256
 20
379
 0
VERTEX
 8
Poly
 10
256
 20
376
 0
VERTEX
 8
Poly
 10
261
 20
379
 0
SEQEND
 8
Poly
 0
LINE
 8
Line
 10
282
 20
381
 11
278
 21
381
 0
LINE
 8
Line
 10
286
 20
386
 11
283
 21
377
 0
LINE
 8
Line
 10
275
 20
385
 11
276
 21
386
 0
LINE
 8
Line
 10
271
 20
383
 11
271
 21
380
 0
LINE
 8
Line
 10
261
 20
379
 11
265
 21
375
 0
LINE
 8
Line
 10
279
 20
381
 11
281
 21
379
 0
LINE
 8
Line
 10
283
 20
377
 11
284
 21
377
 0
POLYLINE
 8
Poly
 66
 1
 0
VERTEX
 8
Poly
 10
271
 20
380
 0
VERTEX
 8
Poly
 10
277
 20
379
 0
VERTEX
 8
Poly
 10
277
 20
377
 0
VERTEX
 8
Poly
 10
271
 20
377
 0
SEQEND
 8
Poly
 0
POLYLINE
 8
Poly
 66
 1
 0
VERTEX
 8
Poly
 10
265
 20
378
 0
VERTEX
 8
Poly
 10
265
 20
375
 0
VERTEX
 8
Poly
 10
269
 20
374
 0
SEQEND
 8
Poly
 0
LINE
 8
Line
 10
281
 20
379
 11
281
 21
375
 0
POLYLINE
 8
Poly
 66
 1
 0
VERTEX
 8
Poly
 10
292
 20
375
 0
VERTEX
 8
Poly
 10
285
 20
376
 0
VERTEX
 8
Poly
 10
284
 20
377
 0
VERTEX
 8
Poly
 10
285
 20
376
 0
SEQEND
 8
Poly
 0
LINE
 8
Line
 10
265
 20
376
 11
267
 21
376
 0
LINE
 8
Line
 10
269
 20
374
 11
269
 21
372
 0
LINE
 8
Line
 10
281
 20
375
 11
276
 21
373
 0
LINE
 8
Line
 10
285
 20
376
 11
292
 21
375
 0
POLYLINE
 8
Poly
 66
 1
 0
VERTEX
 8
Poly
 10
271
 20
375
 0
VERTEX
 8
Poly
 10
275
 20
374
 0
VERTEX
 8
Poly
 10
276
 20
373
 0
SEQEND
 8
Poly
 0
LINE
 8
Line
 10
267
 20
378
 11
265
 21
378
 0
LINE
 8
Line
 10
267
 20
376
 11
267
 21
378
 0
POLYLINE
 8
Poly
 66
 1
 0
VERTEX
 8
Poly
 10
269
 20
372
 0
VERTEX
 8
Poly
 10
265
 20
372
 0
VERTEX
 8
Poly
 10
264
 20
371
 0
VERTEX
 8
Poly
 10
264
 20
368
 0
VERTEX
 8
Poly
 10
266
 20
366
 0
VERTEX
 8
Poly
 10
268
 20
366
 0
SEQEND
 8
Poly
 0
POLYLINE
 8
Poly
 66
 1
 0
VERTEX
 8
Poly
 10
276
 20
373
 0
VERTEX
 8
Poly
 10
286
 20
372
 0
VERTEX
 8
Poly
 10
287
 20
372
 0
VERTEX
 8
Poly
 10
288
 20
371
 0
VERTEX
 8
Poly
 10
288
 20
369
 0
SEQEND
 8
Poly
 0
LINE
 8
Line
 10
290
 20
365
 11
286
 21
365
 0
LINE
 8
Line
 10
275
 20
374
 11
272
 21
373
 0
LINE
 8
Line
 10
268
 20
366
 11
270
 21
361
 0
POLYLINE
 8
Poly
 66
 1
 0
VERTEX
 8
Poly
 10
288
 20
369
 0
VERTEX
 8
Poly
 10
277
 20
369
 0
VERTEX
 8
Poly
 10
276
 20
368
 0
VERTEX
 8
Poly
 10
276
 20
364
 0
SEQEND
 8
Poly
 0
LINE
 8
Line
 10
286
 20
365
 11
286
 21
364
 0
LINE
 8
Line
 10
272
 20
373
 11
272
 21
371
 0
LINE
 8
Line
 10
270
 20
361
 11
268
 21
361
 0
LINE
 8
Line
 10
276
 20
364
 11
274
 21
362
 0
POLYLINE
 8
Poly
 66
 1
 0
VERTEX
 8
Poly
 10
286
 20
364
 0
VERTEX
 8
Poly
 10
282
 20
365
 0
VERTEX
 8
Poly
 10
282
 20
366
 0
SEQEND
 8
Poly
 0
POLYLINE
 8
Poly
 66
 1
 0
VERTEX
 8
Poly
 10
294
 20
374
 0
VERTEX
 8
Poly
 10
303
 20
374
 0
VERTEX
 8
Poly
 10
303
 20
376
 0
VERTEX
 8
Poly
 10
298
 20
376
 0
SEQEND
 8
Poly
 0
POLYLINE
 8
Poly
 66
 1
 0
VERTEX
 8
Poly
 10
272
 20
371
 0
VERTEX
 8
Poly
 10
273
 20
367
 0
VERTEX
 8
Poly
 10
272
 20
362
 0
SEQEND
 8
Poly
 0
LINE
 8
Line
 10
268
 20
361
 11
268
 21
360
 0
LINE
 8
Line
 10
274
 20
362
 11
272
 21
362
 0
LINE
 8
Line
 10
282
 20
366
 11
280
 21
366
 0
POLYLINE
 8
Poly
 66
 1
 0
VERTEX
 8
Poly
 10
268
 20
360
 0
VERTEX
 8
Poly
 10
281
 20
357
 0
VERTEX
 8
Poly
 10
283
 20
356
 0
VERTEX
 8
Poly
 10
280
 20
366
 0
SEQEND
 8
Poly
 0
POLYLINE
 8
Poly
 66
 1
 0
VERTEX
 8
Poly
 10
268
 20
360
 0
VERTEX
 8
Poly
 10
266
 20
359
 0
VERTEX
 8
Poly
 10
265
 20
355
 0
VERTEX
 8
Poly
 10
262
 20
357
 0
SEQEND
 8
Poly
 0
LINE
 8
Line
 10
266
 20
359
 11
263
 21
365
 0
POLYLINE
 8
Poly
 66
 1
 0
VERTEX
 8
Poly
 10
262
 20
357
 0
VERTEX
 8
Poly
 10
254
 20
359
 0
VERTEX
 8
Poly
 10
252
 20
357
 0
VERTEX
 8
Poly
 10
254
 20
347
 0
SEQEND
 8
Poly
 0
POLYLINE
 8
Poly
 66
 1
 0
VERTEX
 8
Poly
 10
260
 20
369
 0
VERTEX
 8
Poly
 10
259
 20
366
 0
VERTEX
 8
Poly
 10
263
 20
365
 0
VERTEX
 8
Poly
 10
264
 20
365
 0
SEQEND
 8
Poly
 0
LINE
 8
Line
 10
259
 20
366
 11
260
 21
369
 0
POLYLINE
 8
Poly
 66
 1
 0
VERTEX
 8
Poly
 10
262
 20
349
 0
VERTEX
 8
Poly
 10
261
 20
350
 0
VERTEX
 8
Poly
 10
261
 20
352
 0
SEQEND
 8
Poly
 0
POLYLINE
 8
Poly
 66
 1
 0
VERTEX
 8
Poly
 10
261
 20
369
 0
VERTEX
 8
Poly
 10
260
 20
369
 0
VERTEX
 8
Poly
 10
257
 20
371
 0
VERTEX
 8
Poly
 10
257
 20
368
 0
SEQEND
 8
Poly
 0
POLYLINE
 8
Poly
 66
 1
 0
VERTEX
 8
Poly
 10
265
 20
342
 0
VERTEX
 8
Poly
 10
262
 20
349
 0
VERTEX
 8
Poly
 10
266
 20
350
 0
SEQEND
 8
Poly
 0
POLYLINE
 8
Poly
 66
 1
 0
VERTEX
 8
Poly
 10
261
 20
352
 0
VERTEX
 8
Poly
 10
269
 20
352
 0
VERTEX
 8
Poly
 10
269
 20
351
 0
SEQEND
 8
Poly
 0
LINE
 8
Line
 10
257
 20
368
 11
253
 21
368
 0
POLYLINE
 8
Poly
 66
 1
 0
VERTEX
 8
Poly
 10
265
 20
342
 0
VERTEX
 8
Poly
 10
267
 20
346
 0
VERTEX
 8
Poly
 10
269
 20
347
 0
VERTEX
 8
Poly
 10
266
 20
350
 0
SEQEND
 8
Poly
 0
LINE
 8
Line
 10
269
 20
351
 11
271
 21
351
 0
POLYLINE
 8
Poly
 66
 1
 0
VERTEX
 8
Poly
 10
269
 20
349
 0
VERTEX
 8
Poly
 10
269
 20
347
 0
VERTEX
 8
Poly
 10
271
 20
347
 0
SEQEND
 8
Poly
 0
POLYLINE
 8
Poly
 66
 1
 0
VERTEX
 8
Poly
 10
271
 20
351
 0
VERTEX
 8
Poly
 10
273
 20
355
 0
VERTEX
 8
Poly
 10
286
 20
355
 0
SEQEND
 8
Poly
 0
LINE
 8
Line
 10
269
 20
349
 11
271
 21
349
 0
POLYLINE
 8
Poly
 66
 1
 0
VERTEX
 8
Poly
 10
272
 20
346
 0
VERTEX
 8
Poly
 10
271
 20
347
 0
VERTEX
 8
Poly
 10
271
 20
349
 0
SEQEND
 8
Poly
 0
POLYLINE
 8
Poly
 66
 1
 0
VERTEX
 8
Poly
 10
286
 20
355
 0
VERTEX
 8
Poly
 10
286
 20
362
 0
VERTEX
 8
Poly
 10
293
 20
361
 0
SEQEND
 8
Poly
 0
LINE
 8
Line
 10
253
 20
364
 11
255
 21
364
 0
LINE
 8
Line
 10
272
 20
346
 11
271
 21
341
 0
LINE
 8
Line
 10
286
 20
351
 11
286
 21
352
 0
LINE
 8
Line
 10
253
 20
368
 11
253
 21
362
 0
POLYLINE
 8
Poly
 66
 1
 0
VERTEX
 8
Poly
 10
253
 20
363
 0
VERTEX
 8
Poly
 10
251
 20
363
 0
VERTEX
 8
Poly
 10
250
 20
362
 0
VERTEX
 8
Poly
 10
248
 20
357
 0
VERTEX
 8
Poly
 10
247
 20
359
 0
VERTEX
 8
Poly
 10
245
 20
357
 0
SEQEND
 8
Poly
 0
LINE
 8
Line
 10
255
 20
364
 11
255
 21
362
 0
LINE
 8
Line
 10
271
 20
341
 11
269
 21
341
 0
LINE
 8
Line
 10
286
 20
352
 11
289
 21
352
 0
LINE
 8
Line
 10
311
 20
359
 11
313
 21
358
 0
LINE
 8
Line
 10
253
 20
362
 11
255
 21
362
 0
LINE
 8
Line
 10
245
 20
357
 11
243
 21
357
 0
LINE
 8
Line
 10
269
 20
341
 11
268
 21
339
 0
POLYLINE
 8
Poly
 66
 1
 0
VERTEX
 8
Poly
 10
290
 20
350
 0
VERTEX
 8
Poly
 10
289
 20
352
 0
VERTEX
 8
Poly
 10
299
 20
354
 0
VERTEX
 8
Poly
 10
301
 20
352
 0
VERTEX
 8
Poly
 10
301
 20
350
 0
SEQEND
 8
Poly
 0
LINE
 8
Line
 10
313
 20
358
 11
314
 21
364
 0
LINE
 8
Line
 10
243
 20
357
 11
241
 21
360
 0
POLYLINE
 8
Poly
 66
 1
 0
VERTEX
 8
Poly
 10
268
 20
338
 0
VERTEX
 8
Poly
 10
268
 20
339
 0
VERTEX
 8
Poly
 10
265
 20
338
 0
SEQEND
 8
Poly
 0
LINE
 8
Line
 10
268
 20
339
 11
265
 21
340
 0
POLYLINE
 8
Poly
 66
 1
 0
VERTEX
 8
Poly
 10
289
 20
346
 0
VERTEX
 8
Poly
 10
290
 20
350
 0
VERTEX
 8
Poly
 10
292
 20
348
 0
SEQEND
 8
Poly
 0
LINE
 8
Line
 10
301
 20
350
 11
294
 21
350
 0
POLYLINE
 8
Poly
 66
 1
 0
VERTEX
 8
Poly
 10
241
 20
360
 0
VERTEX
 8
Poly
 10
239
 20
355
 0
VERTEX
 8
Poly
 10
240
 20
355
 0
SEQEND
 8
Poly
 0
LINE
 8
Line
 10
268
 20
338
 11
269
 21
338
 0
LINE
 8
Line
 10
265
 20
338
 11
265
 21
340
 0
LINE
 8
Line
 10
289
 20
346
 11
287
 21
346
 0
LINE
 8
Line
 10
295
 20
349
 11
292
 21
348
 0
LINE
 8
Line
 10
295
 20
350
 11
295
 21
349
 0
LINE
 8
Line
 10
315
 20
364
 11
315
 21
362
 0
LINE
 8
Line
 10
240
 20
355
 11
240
 21
353
 0
LINE
 8
Line
 10
269
 20
338
 11
259
 21
334
 0
POLYLINE
 8
Poly
 66
 1
 0
VERTEX
 8
Poly
 10
287
 20
346
 0
VERTEX
 8
Poly
 10
285
 20
347
 0
VERTEX
 8
Poly
 10
285
 20
344
 0
SEQEND
 8
Poly
 0
LINE
 8
Line
 10
315
 20
362
 11
317
 21
362
 0
LINE
 8
Line
 10
240
 20
353
 11
234
 21
355
 0
LINE
 8
Line
 10
259
 20
334
 11
259
 21
332
 0
POLYLINE
 8
Poly
 66
 1
 0
VERTEX
 8
Poly
 10
286
 20
341
 0
VERTEX
 8
Poly
 10
285
 20
344
 0
VERTEX
 8
Poly
 10
284
 20
344
 0
SEQEND
 8
Poly
 0
LINE
 8
Line
 10
234
 20
355
 11
232
 21
355
 0
POLYLINE
 8
Poly
 66
 1
 0
VERTEX
 8
Poly
 10
259
 20
332
 0
VERTEX
 8
Poly
 10
262
 20
332
 0
VERTEX
 8
Poly
 10
254
 20
325
 0
VERTEX
 8
Poly
 10
252
 20
325
 0
SEQEND
 8
Poly
 0
POLYLINE
 8
Poly
 66
 1
 0
VERTEX
 8
Poly
 10
286
 20
341
 0
VERTEX
 8
Poly
 10
281
 20
341
 0
VERTEX
 8
Poly
 10
280
 20
340
 0
VERTEX
 8
Poly
 10
280
 20
338
 0
SEQEND
 8
Poly
 0
POLYLINE
 8
Poly
 66
 1
 0
VERTEX
 8
Poly
 10
232
 20
355
 0
VERTEX
 8
Poly
 10
239
 20
349
 0
VERTEX
 8
Poly
 10
239
 20
345
 0
VERTEX
 8
Poly
 10
234
 20
346
 0
SEQEND
 8
Poly
 0
LINE
 8
Line
 10
252
 20
325
 11
248
 21
323
 0
POLYLINE
 8
Poly
 66
 1
 0
VERTEX
 8
Poly
 10
282
 20
338
 0
VERTEX
 8
Poly
 10
280
 20
338
 0
VERTEX
 8
Poly
 10
272
 20
336
 0
SEQEND
 8
Poly
 0
POLYLINE
 8
Poly
 66
 1
 0
VERTEX
 8
Poly
 10
233
 20
345
 0
VERTEX
 8
Poly
 10
234
 20
346
 0
VERTEX
 8
Poly
 10
233
 20
347
 0
SEQEND
 8
Poly
 0
POLYLINE
 8
Poly
 66
 1
 0
VERTEX
 8
Poly
 10
249
 20
320
 0
VERTEX
 8
Poly
 10
248
 20
323
 0
VERTEX
 8
Poly
 10
248
 20
324
 0
SEQEND
 8
Poly
 0
POLYLINE
 8
Poly
 66
 1
 0
VERTEX
 8
Poly
 10
282
 20
338
 0
VERTEX
 8
Poly
 10
280
 20
330
 0
VERTEX
 8
Poly
 10
273
 20
323
 0
VERTEX
 8
Poly
 10
270
 20
324
 0
SEQEND
 8
Poly
 0
LINE
 8
Line
 10
282
 20
338
 11
286
 21
339
 0
POLYLINE
 8
Poly
 66
 1
 0
VERTEX
 8
Poly
 10
233
 20
345
 0
VERTEX
 8
Poly
 10
232
 20
340
 0
VERTEX
 8
Poly
 10
230
 20
340
 0
SEQEND
 8
Poly
 0
POLYLINE
 8
Poly
 66
 1
 0
VERTEX
 8
Poly
 10
233
 20
345
 0
VERTEX
 8
Poly
 10
232
 20
346
 0
VERTEX
 8
Poly
 10
233
 20
347
 0
VERTEX
 8
Poly
 10
230
 20
351
 0
VERTEX
 8
Poly
 10
232
 20
346
 0
SEQEND
 8
Poly
 0
POLYLINE
 8
Poly
 66
 1
 0
VERTEX
 8
Poly
 10
249
 20
320
 0
VERTEX
 8
Poly
 10
251
 20
317
 0
VERTEX
 8
Poly
 10
248
 20
317
 0
VERTEX
 8
Poly
 10
247
 20
318
 0
VERTEX
 8
Poly
 10
246
 20
322
 0
SEQEND
 8
Poly
 0
LINE
 8
Line
 10
270
 20
324
 11
270
 21
321
 0
LINE
 8
Line
 10
286
 20
339
 11
286
 21
337
 0
POLYLINE
 8
Poly
 66
 1
 0
VERTEX
 8
Poly
 10
229
 20
330
 0
VERTEX
 8
Poly
 10
230
 20
329
 0
VERTEX
 8
Poly
 10
232
 20
329
 0
SEQEND
 8
Poly
 0
LINE
 8
Line
 10
246
 20
322
 11
243
 21
322
 0
POLYLINE
 8
Poly
 66
 1
 0
VERTEX
 8
Poly
 10
270
 20
321
 0
VERTEX
 8
Poly
 10
274
 20
317
 0
VERTEX
 8
Poly
 10
271
 20
318
 0
SEQEND
 8
Poly
 0
LINE
 8
Line
 10
272
 20
336
 11
272
 21
326
 0
LINE
 8
Line
 10
329
 20
370
 11
334
 21
368
 0
POLYLINE
 8
Poly
 66
 1
 0
VERTEX
 8
Poly
 10
232
 20
329
 0
VERTEX
 8
Poly
 10
234
 20
328
 0
VERTEX
 8
Poly
 10
234
 20
331
 0
SEQEND
 8
Poly
 0
LINE
 8
Line
 10
243
 20
322
 11
243
 21
320
 0
LINE
 8
Line
 10
271
 20
318
 11
257
 21
319
 0
LINE
 8
Line
 10
286
 20
337
 11
289
 21
331
 0
LINE
 8
Line
 10
272
 20
326
 11
268
 21
326
 0
POLYLINE
 8
Poly
 66
 1
 0
VERTEX
 8
Poly
 10
335
 20
367
 0
VERTEX
 8
Poly
 10
334
 20
368
 0
VERTEX
 8
Poly
 10
329
 20
368
 0
SEQEND
 8
Poly
 0
LINE
 8
Line
 10
234
 20
331
 11
236
 21
331
 0
LINE
 8
Line
 10
243
 20
320
 11
241
 21
319
 0
LINE
 8
Line
 10
257
 20
319
 11
255
 21
319
 0
POLYLINE
 8
Poly
 66
 1
 0
VERTEX
 8
Poly
 10
289
 20
331
 0
VERTEX
 8
Poly
 10
298
 20
328
 0
VERTEX
 8
Poly
 10
297
 20
336
 0
SEQEND
 8
Poly
 0
LINE
 8
Line
 10
335
 20
367
 11
337
 21
367
 0
LINE
 8
Line
 10
236
 20
331
 11
239
 21
323
 0
POLYLINE
 8
Poly
 66
 1
 0
VERTEX
 8
Poly
 10
241
 20
319
 0
VERTEX
 8
Poly
 10
230
 20
322
 0
VERTEX
 8
Poly
 10
231
 20
324
 0
SEQEND
 8
Poly
 0
POLYLINE
 8
Poly
 66
 1
 0
VERTEX
 8
Poly
 10
255
 20
319
 0
VERTEX
 8
Poly
 10
253
 20
322
 0
VERTEX
 8
Poly
 10
255
 20
323
 0
VERTEX
 8
Poly
 10
266
 20
319
 0
SEQEND
 8
Poly
 0
LINE
 8
Line
 10
297
 20
336
 11
304
 21
336
 0
POLYLINE
 8
Poly
 66
 1
 0
VERTEX
 8
Poly
 10
268
 20
326
 0
VERTEX
 8
Poly
 10
260
 20
327
 0
VERTEX
 8
Poly
 10
261
 20
324
 0
VERTEX
 8
Poly
 10
262
 20
324
 0
SEQEND
 8
Poly
 0
LINE
 8
Line
 10
337
 20
367
 11
337
 21
369
 0
LINE
 8
Line
 10
335
 20
367
 11
338
 21
367
 0
LINE
 8
Line
 10
266
 20
319
 11
266
 21
321
 0
LINE
 8
Line
 10
304
 20
336
 11
304
 21
334
 0
LINE
 8
Line
 10
262
 20
324
 11
266
 21
321
 0
POLYLINE
 8
Poly
 66
 1
 0
VERTEX
 8
Poly
 10
304
 20
334
 0
VERTEX
 8
Poly
 10
300
 20
334
 0
VERTEX
 8
Poly
 10
299
 20
326
 0
SEQEND
 8
Poly
 0
LINE
 8
Line
 10
299
 20
326
 11
290
 21
326
 0
LINE
 8
Line
 10
333
 20
351
 11
338
 21
348
 0
LINE
 8
Line
 10
290
 20
326
 11
286
 21
332
 0
POLYLINE
 8
Poly
 66
 1
 0
VERTEX
 8
Poly
 10
338
 20
348
 0
VERTEX
 8
Poly
 10
341
 20
344
 0
VERTEX
 8
Poly
 10
341
 20
342
 0
VERTEX
 8
Poly
 10
340
 20
341
 0
VERTEX
 8
Poly
 10
335
 20
342
 0
SEQEND
 8
Poly
 0
LINE
 8
Line
 10
286
 20
332
 11
285
 21
332
 0
LINE
 8
Line
 10
335
 20
342
 11
335
 21
340
 0
POLYLINE
 8
Poly
 66
 1
 0
VERTEX
 8
Poly
 10
285
 20
333
 0
VERTEX
 8
Poly
 10
285
 20
332
 0
VERTEX
 8
Poly
 10
283
 20
328
 0
VERTEX
 8
Poly
 10
288
 20
322
 0
SEQEND
 8
Poly
 0
LINE
 8
Line
 10
335
 20
340
 11
343
 21
342
 0
LINE
 8
Line
 10
288
 20
322
 11
279
 21
327
 0
LINE
 8
Line
 10
343
 20
342
 11
346
 21
345
 0
POLYLINE
 8
Poly
 66
 1
 0
VERTEX
 8
Poly
 10
279
 20
327
 0
VERTEX
 8
Poly
 10
279
 20
324
 0
VERTEX
 8
Poly
 10
277
 20
318
 0
SEQEND
 8
Poly
 0
LINE
 8
Line
 10
346
 20
345
 11
339
 21
352
 0
POLYLINE
 8
Poly
 66
 1
 0
VERTEX
 8
Poly
 10
277
 20
317
 0
VERTEX
 8
Poly
 10
277
 20
318
 0
VERTEX
 8
Poly
 10
276
 20
318
 0
SEQEND
 8
Poly
 0
POLYLINE
 8
Poly
 66
 1
 0
VERTEX
 8
Poly
 10
282
 20
318
 0
VERTEX
 8
Poly
 10
280
 20
318
 0
VERTEX
 8
Poly
 10
277
 20
317
 0
VERTEX
 8
Poly
 10
276
 20
317
 0
SEQEND
 8
Poly
 0
LINE
 8
Line
 10
280
 20
318
 11
282
 21
318
 0
POLYLINE
 8
Poly
 66
 1
 0
VERTEX
 8
Poly
 10
341
 20
360
 0
VERTEX
 8
Poly
 10
337
 20
358
 0
VERTEX
 8
Poly
 10
337
 20
364
 0
VERTEX
 8
Poly
 10
344
 20
362
 0
SEQEND
 8
Poly
 0
POLYLINE
 8
Poly
 66
 1
 0
VERTEX
 8
Poly
 10
282
 20
318
 0
VERTEX
 8
Poly
 10
284
 20
317
 0
VERTEX
 8
Poly
 10
284
 20
320
 0
SEQEND
 8
Poly
 0
LINE
 8
Line
 10
344
 20
362
 11
347
 21
357
 0
LINE
 8
Line
 10
284
 20
320
 11
286
 21
320
 0
LINE
 8
Line
 10
347
 20
357
 11
348
 21
357
 0
POLYLINE
 8
Poly
 66
 1
 0
VERTEX
 8
Poly
 10
286
 20
320
 0
VERTEX
 8
Poly
 10
286
 20
317
 0
VERTEX
 8
Poly
 10
287
 20
316
 0
VERTEX
 8
Poly
 10
292
 20
320
 0
SEQEND
 8
Poly
 0
POLYLINE
 8
Poly
 66
 1
 0
VERTEX
 8
Poly
 10
361
 20
352
 0
VERTEX
 8
Poly
 10
360
 20
351
 0
VERTEX
 8
Poly
 10
362
 20
350
 0
SEQEND
 8
Poly
 0
LINE
 8
Line
 10
292
 20
320
 11
295
 21
323
 0
POLYLINE
 8
Poly
 66
 1
 0
VERTEX
 8
Poly
 10
361
 20
353
 0
VERTEX
 8
Poly
 10
361
 20
352
 0
VERTEX
 8
Poly
 10
367
 20
350
 0
VERTEX
 8
Poly
 10
367
 20
352
 0
SEQEND
 8
Poly
 0
POLYLINE
 8
Poly
 66
 1
 0
VERTEX
 8
Poly
 10
362
 20
350
 0
VERTEX
 8
Poly
 10
361
 20
345
 0
VERTEX
 8
Poly
 10
357
 20
342
 0
SEQEND
 8
Poly
 0
LINE
 8
Line
 10
295
 20
323
 11
299
 21
323
 0
LINE
 8
Line
 10
361
 20
353
 11
359
 21
358
 0
POLYLINE
 8
Poly
 66
 1
 0
VERTEX
 8
Poly
 10
367
 20
352
 0
VERTEX
 8
Poly
 10
373
 20
351
 0
VERTEX
 8
Poly
 10
374
 20
353
 0
SEQEND
 8
Poly
 0
LINE
 8
Line
 10
357
 20
342
 11
357
 21
340
 0
POLYLINE
 8
Poly
 66
 1
 0
VERTEX
 8
Poly
 10
299
 20
323
 0
VERTEX
 8
Poly
 10
299
 20
317
 0
VERTEX
 8
Poly
 10
305
 20
317
 0
VERTEX
 8
Poly
 10
306
 20
318
 0
VERTEX
 8
Poly
 10
303
 20
320
 0
SEQEND
 8
Poly
 0
POLYLINE
 8
Poly
 66
 1
 0
VERTEX
 8
Poly
 10
359
 20
358
 0
VERTEX
 8
Poly
 10
351
 20
360
 0
VERTEX
 8
Poly
 10
352
 20
366
 0
VERTEX
 8
Poly
 10
353
 20
367
 0
VERTEX
 8
Poly
 10
358
 20
368
 0
SEQEND
 8
Poly
 0
LINE
 8
Line
 10
374
 20
353
 11
379
 21
349
 0
POLYLINE
 8
Poly
 66
 1
 0
VERTEX
 8
Poly
 10
303
 20
320
 0
VERTEX
 8
Poly
 10
303
 20
322
 0
VERTEX
 8
Poly
 10
304
 20
323
 0
VERTEX
 8
Poly
 10
308
 20
323
 0
SEQEND
 8
Poly
 0
LINE
 8
Line
 10
358
 20
368
 11
358
 21
370
 0
POLYLINE
 8
Poly
 66
 1
 0
VERTEX
 8
Poly
 10
379
 20
349
 0
VERTEX
 8
Poly
 10
377
 20
349
 0
VERTEX
 8
Poly
 10
373
 20
348
 0
VERTEX
 8
Poly
 10
373
 20
345
 0
VERTEX
 8
Poly
 10
376
 20
346
 0
SEQEND
 8
Poly
 0
POLYLINE
 8
Poly
 66
 1
 0
VERTEX
 8
Poly
 10
357
 20
340
 0
VERTEX
 8
Poly
 10
368
 20
340
 0
VERTEX
 8
Poly
 10
371
 20
337
 0
VERTEX
 8
Poly
 10
374
 20
338
 0
SEQEND
 8
Poly
 0
POLYLINE
 8
Poly
 66
 1
 0
VERTEX
 8
Poly
 10
322
 20
317
 0
VERTEX
 8
Poly
 10
322
 20
319
 0
VERTEX
 8
Poly
 10
319
 20
322
 0
VERTEX
 8
Poly
 10
313
 20
321
 0
SEQEND
 8
Poly
 0
LINE
 8
Line
 10
358
 20
370
 11
351
 21
371
 0
LINE
 8
Line
 10
376
 20
346
 11
380
 21
346
 0
LINE
 8
Line
 10
374
 20
338
 11
375
 21
328
 0
LINE
 8
Line
 10
313
 20
321
 11
313
 21
326
 0
LINE
 8
Line
 10
351
 20
371
 11
345
 21
365
 0
LINE
 8
Line
 10
380
 20
346
 11
380
 21
344
 0
LINE
 8
Line
 10
375
 20
328
 11
379
 21
326
 0
LINE
 8
Line
 10
313
 20
326
 11
316
 21
333
 0
LINE
 8
Line
 10
380
 20
344
 11
377
 21
343
 0
LINE
 8
Line
 10
379
 20
326
 11
381
 21
326
 0
LINE
 8
Line
 10
316
 20
333
 11
318
 21
333
 0
POLYLINE
 8
Poly
 66
 1
 0
VERTEX
 8
Poly
 10
377
 20
342
 0
VERTEX
 8
Poly
 10
377
 20
343
 0
VERTEX
 8
Poly
 10
376
 20
343
 0
SEQEND
 8
Poly
 0
POLYLINE
 8
Poly
 66
 1
 0
VERTEX
 8
Poly
 10
381
 20
326
 0
VERTEX
 8
Poly
 10
381
 20
329
 0
VERTEX
 8
Poly
 10
383
 20
331
 0
VERTEX
 8
Poly
 10
386
 20
331
 0
SEQEND
 8
Poly
 0
POLYLINE
 8
Poly
 66
 1
 0
VERTEX
 8
Poly
 10
318
 20
333
 0
VERTEX
 8
Poly
 10
320
 20
328
 0
VERTEX
 8
Poly
 10
321
 20
327
 0
SEQEND
 8
Poly
 0
LINE
 8
Line
 10
340
 20
370
 11
354
 21
374
 0
LINE
 8
Line
 10
377
 20
342
 11
380
 21
342
 0
LINE
 8
Line
 10
386
 20
331
 11
386
 21
327
 0
POLYLINE
 8
Poly
 66
 1
 0
VERTEX
 8
Poly
 10
319
 20
325
 0
VERTEX
 8
Poly
 10
321
 20
327
 0
VERTEX
 8
Poly
 10
324
 20
329
 0
SEQEND
 8
Poly
 0
POLYLINE
 8
Poly
 66
 1
 0
VERTEX
 8
Poly
 10
340
 20
372
 0
VERTEX
 8
Poly
 10
346
 20
372
 0
VERTEX
 8
Poly
 10
339
 20
380
 0
VERTEX
 8
Poly
 10
338
 20
374
 0
SEQEND
 8
Poly
 0
POLYLINE
 8
Poly
 66
 1
 0
VERTEX
 8
Poly
 10
354
 20
374
 0
VERTEX
 8
Poly
 10
355
 20
376
 0
VERTEX
 8
Poly
 10
356
 20
380
 0
SEQEND
 8
Poly
 0
LINE
 8
Line
 10
380
 20
342
 11
380
 21
341
 0
LINE
 8
Line
 10
386
 20
327
 11
388
 21
327
 0
POLYLINE
 8
Poly
 66
 1
 0
VERTEX
 8
Poly
 10
319
 20
324
 0
VERTEX
 8
Poly
 10
319
 20
325
 0
VERTEX
 8
Poly
 10
319
 20
324
 0
SEQEND
 8
Poly
 0
LINE
 8
Line
 10
324
 20
329
 11
336
 21
328
 0
POLYLINE
 8
Poly
 66
 1
 0
VERTEX
 8
Poly
 10
357
 20
381
 0
VERTEX
 8
Poly
 10
356
 20
380
 0
VERTEX
 8
Poly
 10
358
 20
379
 0
SEQEND
 8
Poly
 0
POLYLINE
 8
Poly
 66
 1
 0
VERTEX
 8
Poly
 10
380
 20
341
 0
VERTEX
 8
Poly
 10
387
 20
334
 0
VERTEX
 8
Poly
 10
389
 20
334
 0
VERTEX
 8
Poly
 10
393
 20
330
 0
VERTEX
 8
Poly
 10
388
 20
327
 0
SEQEND
 8
Poly
 0
LINE
 8
Line
 10
336
 20
328
 11
336
 21
326
 0
POLYLINE
 8
Poly
 66
 1
 0
VERTEX
 8
Poly
 10
357
 20
382
 0
VERTEX
 8
Poly
 10
357
 20
381
 0
VERTEX
 8
Poly
 10
361
 20
379
 0
SEQEND
 8
Poly
 0
LINE
 8
Line
 10
358
 20
379
 11
358
 21
376
 0
LINE
 8
Line
 10
336
 20
326
 11
333
 21
326
 0
POLYLINE
 8
Poly
 66
 1
 0
VERTEX
 8
Poly
 10
356
 20
382
 0
VERTEX
 8
Poly
 10
357
 20
382
 0
VERTEX
 8
Poly
 10
356
 20
385
 0
VERTEX
 8
Poly
 10
357
 20
386
 0
VERTEX
 8
Poly
 10
360
 20
386
 0
VERTEX
 8
Poly
 10
360
 20
383
 0
SEQEND
 8
Poly
 0
POLYLINE
 8
Poly
 66
 1
 0
VERTEX
 8
Poly
 10
362
 20
378
 0
VERTEX
 8
Poly
 10
361
 20
379
 0
VERTEX
 8
Poly
 10
364
 20
380
 0
SEQEND
 8
Poly
 0
LINE
 8
Line
 10
358
 20
376
 11
363
 21
371
 0
POLYLINE
 8
Poly
 66
 1
 0
VERTEX
 8
Poly
 10
333
 20
326
 0
VERTEX
 8
Poly
 10
341
 20
316
 0
VERTEX
 8
Poly
 10
343
 20
316
 0
VERTEX
 8
Poly
 10
343
 20
317
 0
VERTEX
 8
Poly
 10
344
 20
321
 0
SEQEND
 8
Poly
 0
POLYLINE
 8
Poly
 66
 1
 0
VERTEX
 8
Poly
 10
360
 20
383
 0
VERTEX
 8
Poly
 10
365
 20
383
 0
VERTEX
 8
Poly
 10
367
 20
382
 0
VERTEX
 8
Poly
 10
364
 20
380
 0
SEQEND
 8
Poly
 0
LINE
 8
Line
 10
363
 20
371
 11
365
 21
371
 0
LINE
 8
Line
 10
344
 20
321
 11
346
 21
321
 0
LINE
 8
Line
 10
365
 20
371
 11
367
 21
374
 0
LINE
 8
Line
 10
346
 20
321
 11
346
 21
317
 0
LINE
 8
Line
 10
367
 20
374
 11
371
 21
374
 0
LINE
 8
Line
 10
346
 20
317
 11
349
 21
318
 0
LINE
 8
Line
 10
371
 20
374
 11
373
 21
375
 0
POLYLINE
 8
Poly
 66
 1
 0
VERTEX
 8
Poly
 10
349
 20
318
 0
VERTEX
 8
Poly
 10
349
 20
320
 0
VERTEX
 8
Poly
 10
350
 20
321
 0
VERTEX
 8
Poly
 10
365
 20
316
 0
VERTEX
 8
Poly
 10
366
 20
318
 0
SEQEND
 8
Poly
 0
POLYLINE
 8
Poly
 66
 1
 0
VERTEX
 8
Poly
 10
373
 20
375
 0
VERTEX
 8
Poly
 10
380
 20
372
 0
VERTEX
 8
Poly
 10
377
 20
370
 0
SEQEND
 8
Poly
 0
LINE
 8
Line
 10
366
 20
318
 11
368
 21
318
 0
LINE
 8
Line
 10
377
 20
370
 11
377
 21
371
 0
POLYLINE
 8
Poly
 66
 1
 0
VERTEX
 8
Poly
 10
365
 20
321
 0
VERTEX
 8
Poly
 10
369
 20
319
 0
VERTEX
 8
Poly
 10
368
 20
318
 0
VERTEX
 8
Poly
 10
369
 20
319
 0
SEQEND
 8
Poly
 0
LINE
 8
Line
 10
369
 20
319
 11
365
 21
321
 0
LINE
 8
Line
 10
368
 20
365
 11
366
 21
362
 0
LINE
 8
Line
 10
365
 20
321
 11
365
 21
323
 0
POLYLINE
 8
Poly
 66
 1
 0
VERTEX
 8
Poly
 10
367
 20
361
 0
VERTEX
 8
Poly
 10
366
 20
362
 0
VERTEX
 8
Poly
 10
363
 20
363
 0
SEQEND
 8
Poly
 0
POLYLINE
 8
Poly
 66
 1
 0
VERTEX
 8
Poly
 10
365
 20
323
 0
VERTEX
 8
Poly
 10
368
 20
323
 0
VERTEX
 8
Poly
 10
373
 20
319
 0
VERTEX
 8
Poly
 10
373
 20
317
 0
VERTEX
 8
Poly
 10
374
 20
316
 0
VERTEX
 8
Poly
 10
379
 20
316
 0
VERTEX
 8
Poly
 10
380
 20
317
 0
VERTEX
 8
Poly
 10
380
 20
319
 0
SEQEND
 8
Poly
 0
POLYLINE
 8
Poly
 66
 1
 0
VERTEX
 8
Poly
 10
366
 20
357
 0
VERTEX
 8
Poly
 10
367
 20
361
 0
VERTEX
 8
Poly
 10
366
 20
357
 0
SEQEND
 8
Poly
 0
POLYLINE
 8
Poly
 66
 1
 0
VERTEX
 8
Poly
 10
363
 20
363
 0
VERTEX
 8
Poly
 10
367
 20
356
 0
VERTEX
 8
Poly
 10
366
 20
357
 0
SEQEND
 8
Poly
 0
LINE
 8
Line
 10
380
 20
319
 11
382
 21
319
 0
LINE
 8
Line
 10
367
 20
356
 11
368
 21
354
 0
POLYLINE
 8
Poly
 66
 1
 0
VERTEX
 8
Poly
 10
382
 20
319
 0
VERTEX
 8
Poly
 10
382
 20
317
 0
VERTEX
 8
Poly
 10
383
 20
316
 0
VERTEX
 8
Poly
 10
390
 20
316
 0
VERTEX
 8
Poly
 10
390
 20
317
 0
SEQEND
 8
Poly
 0
LINE
 8
Line
 10
368
 20
354
 11
370
 21
354
 0
POLYLINE
 8
Poly
 66
 1
 0
VERTEX
 8
Poly
 10
390
 20
317
 0
VERTEX
 8
Poly
 10
395
 20
316
 0
VERTEX
 8
Poly
 10
395
 20
318
 0
SEQEND
 8
Poly
 0
POLYLINE
 8
Poly
 66
 1
 0
VERTEX
 8
Poly
 10
370
 20
354
 0
VERTEX
 8
Poly
 10
374
 20
357
 0
VERTEX
 8
Poly
 10
375
 20
356
 0
SEQEND
 8
Poly
 0
LINE
 8
Line
 10
395
 20
318
 11
399
 21
318
 0
LINE
 8
Line
 10
375
 20
356
 11
377
 21
356
 0
LINE
 8
Line
 10
399
 20
318
 11
403
 21
314
 0
LINE
 8
Line
 10
377
 20
356
 11
376
 21
361
 0
POLYLINE
 8
Poly
 66
 1
 0
VERTEX
 8
Poly
 10
402
 20
313
 0
VERTEX
 8
Poly
 10
403
 20
314
 0
VERTEX
 8
Poly
 10
408
 20
316
 0
VERTEX
 8
Poly
 10
405
 20
319
 0
SEQEND
 8
Poly
 0
LINE
 8
Line
 10
376
 20
361
 11
374
 21
361
 0
POLYLINE
 8
Poly
 66
 1
 0
VERTEX
 8
Poly
 10
405
 20
311
 0
VERTEX
 8
Poly
 10
403
 20
311
 0
VERTEX
 8
Poly
 10
402
 20
313
 0
VERTEX
 8
Poly
 10
401
 20
311
 0
SEQEND
 8
Poly
 0
LINE
 8
Line
 10
374
 20
361
 11
374
 21
360
 0
LINE
 8
Line
 10
403
 20
311
 11
405
 21
311
 0
LINE
 8
Line
 10
401
 20
311
 11
399
 21
309
 0
POLYLINE
 8
Poly
 66
 1
 0
VERTEX
 8
Poly
 10
374
 20
360
 0
VERTEX
 8
Poly
 10
372
 20
364
 0
VERTEX
 8
Poly
 10
374
 20
364
 0
SEQEND
 8
Poly
 0
LINE
 8
Line
 10
405
 20
311
 11
405
 21
313
 0
LINE
 8
Line
 10
399
 20
309
 11
401
 21
308
 0
POLYLINE
 8
Poly
 66
 1
 0
VERTEX
 8
Poly
 10
374
 20
364
 0
VERTEX
 8
Poly
 10
379
 20
363
 0
VERTEX
 8
Poly
 10
383
 20
360
 0
VERTEX
 8
Poly
 10
382
 20
362
 0
VERTEX
 8
Poly
 10
385
 20
362
 0
SEQEND
 8
Poly
 0
POLYLINE
 8
Poly
 66
 1
 0
VERTEX
 8
Poly
 10
405
 20
313
 0
VERTEX
 8
Poly
 10
419
 20
313
 0
VERTEX
 8
Poly
 10
419
 20
311
 0
VERTEX
 8
Poly
 10
414
 20
311
 0
SEQEND
 8
Poly
 0
POLYLINE
 8
Poly
 66
 1
 0
VERTEX
 8
Poly
 10
401
 20
307
 0
VERTEX
 8
Poly
 10
401
 20
308
 0
VERTEX
 8
Poly
 10
411
 20
307
 0
SEQEND
 8
Poly
 0
LINE
 8
Line
 10
421
 20
320
 11
421
 21
318
 0
POLYLINE
 8
Poly
 66
 1
 0
VERTEX
 8
Poly
 10
385
 20
362
 0
VERTEX
 8
Poly
 10
385
 20
364
 0
VERTEX
 8
Poly
 10
384
 20
365
 0
VERTEX
 8
Poly
 10
381
 20
365
 0
VERTEX
 8
Poly
 10
379
 20
366
 0
VERTEX
 8
Poly
 10
380
 20
382
 0
SEQEND
 8
Poly
 0
POLYLINE
 8
Poly
 66
 1
 0
VERTEX
 8
Poly
 10
414
 20
311
 0
VERTEX
 8
Poly
 10
414
 20
309
 0
VERTEX
 8
Poly
 10
415
 20
308
 0
VERTEX
 8
Poly
 10
421
 20
309
 0
SEQEND
 8
Poly
 0
POLYLINE
 8
Poly
 66
 1
 0
VERTEX
 8
Poly
 10
398
 20
304
 0
VERTEX
 8
Poly
 10
401
 20
307
 0
VERTEX
 8
Poly
 10
390
 20
310
 0
SEQEND
 8
Poly
 0
LINE
 8
Line
 10
411
 20
307
 11
411
 21
305
 0
POLYLINE
 8
Poly
 66
 1
 0
VERTEX
 8
Poly
 10
421
 20
318
 0
VERTEX
 8
Poly
 10
419
 20
316
 0
VERTEX
 8
Poly
 10
424
 20
316
 0
VERTEX
 8
Poly
 10
426
 20
318
 0
SEQEND
 8
Poly
 0
POLYLINE
 8
Poly
 66
 1
 0
VERTEX
 8
Poly
 10
413
 20
336
 0
VERTEX
 8
Poly
 10
413
 20
339
 0
VERTEX
 8
Poly
 10
417
 20
343
 0
VERTEX
 8
Poly
 10
422
 20
343
 0
SEQEND
 8
Poly
 0
POLYLINE
 8
Poly
 66
 1
 0
VERTEX
 8
Poly
 10
380
 20
382
 0
VERTEX
 8
Poly
 10
377
 20
385
 0
VERTEX
 8
Poly
 10
383
 20
383
 0
SEQEND
 8
Poly
 0
LINE
 8
Line
 10
421
 20
309
 11
422
 21
311
 0
LINE
 8
Line
 10
398
 20
304
 11
392
 21
305
 0
LINE
 8
Line
 10
390
 20
310
 11
388
 21
310
 0
LINE
 8
Line
 10
411
 20
305
 11
403
 21
305
 0
LINE
 8
Line
 10
422
 20
343
 11
422
 21
341
 0
LINE
 8
Line
 10
383
 20
383
 11
381
 21
392
 0
POLYLINE
 8
Poly
 66
 1
 0
VERTEX
 8
Poly
 10
422
 20
311
 0
VERTEX
 8
Poly
 10
425
 20
308
 0
VERTEX
 8
Poly
 10
423
 20
308
 0
SEQEND
 8
Poly
 0
LINE
 8
Line
 10
398
 20
304
 11
398
 21
302
 0
LINE
 8
Line
 10
398
 20
303
 11
403
 21
305
 0
LINE
 8
Line
 10
392
 20
305
 11
392
 21
303
 0
LINE
 8
Line
 10
364
 20
299
 11
365
 21
296
 0
LINE
 8
Line
 10
403
 20
305
 11
403
 21
306
 0
POLYLINE
 8
Poly
 66
 1
 0
VERTEX
 8
Poly
 10
422
 20
341
 0
VERTEX
 8
Poly
 10
418
 20
341
 0
VERTEX
 8
Poly
 10
416
 20
338
 0
VERTEX
 8
Poly
 10
416
 20
336
 0
SEQEND
 8
Poly
 0
LINE
 8
Line
 10
381
 20
392
 11
393
 21
391
 0
LINE
 8
Line
 10
423
 20
308
 11
423
 21
306
 0
LINE
 8
Line
 10
398
 20
302
 11
392
 21
303
 0
POLYLINE
 8
Poly
 66
 1
 0
VERTEX
 8
Poly
 10
365
 20
296
 0
VERTEX
 8
Poly
 10
360
 20
296
 0
VERTEX
 8
Poly
 10
357
 20
294
 0
VERTEX
 8
Poly
 10
359
 20
291
 0
VERTEX
 8
Poly
 10
365
 20
294
 0
SEQEND
 8
Poly
 0
LINE
 8
Line
 10
416
 20
336
 11
424
 21
332
 0
LINE
 8
Line
 10
393
 20
391
 11
399
 21
391
 0
POLYLINE
 8
Poly
 66
 1
 0
VERTEX
 8
Poly
 10
423
 20
306
 0
VERTEX
 8
Poly
 10
426
 20
306
 0
VERTEX
 8
Poly
 10
424
 20
301
 0
SEQEND
 8
Poly
 0
POLYLINE
 8
Poly
 66
 1
 0
VERTEX
 8
Poly
 10
365
 20
294
 0
VERTEX
 8
Poly
 10
365
 20
292
 0
VERTEX
 8
Poly
 10
366
 20
291
 0
SEQEND
 8
Poly
 0
POLYLINE
 8
Poly
 66
 1
 0
VERTEX
 8
Poly
 10
425
 20
332
 0
VERTEX
 8
Poly
 10
424
 20
332
 0
VERTEX
 8
Poly
 10
424
 20
331
 0
SEQEND
 8
Poly
 0
LINE
 8
Line
 10
399
 20
391
 11
399
 21
394
 0
LINE
 8
Line
 10
424
 20
301
 11
430
 21
303
 0
LINE
 8
Line
 10
366
 20
291
 11
372
 21
291
 0
POLYLINE
 8
Poly
 66
 1
 0
VERTEX
 8
Poly
 10
425
 20
332
 0
VERTEX
 8
Poly
 10
425
 20
338
 0
VERTEX
 8
Poly
 10
426
 20
346
 0
SEQEND
 8
Poly
 0
POLYLINE
 8
Poly
 66
 1
 0
VERTEX
 8
Poly
 10
399
 20
394
 0
VERTEX
 8
Poly
 10
413
 20
394
 0
VERTEX
 8
Poly
 10
407
 20
391
 0
VERTEX
 8
Poly
 10
404
 20
392
 0
SEQEND
 8
Poly
 0
POLYLINE
 8
Poly
 66
 1
 0
VERTEX
 8
Poly
 10
372
 20
291
 0
VERTEX
 8
Poly
 10
377
 20
294
 0
VERTEX
 8
Poly
 10
370
 20
294
 0
VERTEX
 8
Poly
 10
367
 20
293
 0
SEQEND
 8
Poly
 0
LINE
 8
Line
 10
426
 20
346
 11
429
 21
346
 0
POLYLINE
 8
Poly
 66
 1
 0
VERTEX
 8
Poly
 10
404
 20
392
 0
VERTEX
 8
Poly
 10
401
 20
388
 0
VERTEX
 8
Poly
 10
400
 20
388
 0
SEQEND
 8
Poly
 0
LINE
 8
Line
 10
367
 20
293
 11
370
 21
298
 0
POLYLINE
 8
Poly
 66
 1
 0
VERTEX
 8
Poly
 10
399
 20
383
 0
VERTEX
 8
Poly
 10
400
 20
388
 0
VERTEX
 8
Poly
 10
400
 20
389
 0
SEQEND
 8
Poly
 0
POLYLINE
 8
Poly
 66
 1
 0
VERTEX
 8
Poly
 10
370
 20
298
 0
VERTEX
 8
Poly
 10
373
 20
298
 0
VERTEX
 8
Poly
 10
373
 20
303
 0
SEQEND
 8
Poly
 0
LINE
 8
Line
 10
373
 20
303
 11
376
 21
302
 0
LINE
 8
Line
 10
407
 20
384
 11
406
 21
388
 0
POLYLINE
 8
Poly
 66
 1
 0
VERTEX
 8
Poly
 10
377
 20
303
 0
VERTEX
 8
Poly
 10
376
 20
302
 0
VERTEX
 8
Poly
 10
377
 20
303
 0
SEQEND
 8
Poly
 0
POLYLINE
 8
Poly
 66
 1
 0
VERTEX
 8
Poly
 10
426
 20
359
 0
VERTEX
 8
Poly
 10
424
 20
362
 0
VERTEX
 8
Poly
 10
422
 20
361
 0
SEQEND
 8
Poly
 0
LINE
 8
Line
 10
406
 20
388
 11
405
 21
388
 0
LINE
 8
Line
 10
377
 20
303
 11
375
 21
307
 0
LINE
 8
Line
 10
422
 20
361
 11
417
 21
364
 0
LINE
 8
Line
 10
418
 20
388
 11
418
 21
389
 0
LINE
 8
Line
 10
375
 20
307
 11
377
 21
307
 0
LINE
 8
Line
 10
417
 20
364
 11
415
 21
366
 0
POLYLINE
 8
Poly
 66
 1
 0
VERTEX
 8
Poly
 10
418
 20
389
 0
VERTEX
 8
Poly
 10
425
 20
387
 0
VERTEX
 8
Poly
 10
424
 20
383
 0
VERTEX
 8
Poly
 10
420
 20
382
 0
SEQEND
 8
Poly
 0
LINE
 8
Line
 10
381
 20
297
 11
391
 21
297
 0
POLYLINE
 8
Poly
 66
 1
 0
VERTEX
 8
Poly
 10
414
 20
366
 0
VERTEX
 8
Poly
 10
415
 20
366
 0
VERTEX
 8
Poly
 10
415
 20
367
 0
SEQEND
 8
Poly
 0
POLYLINE
 8
Poly
 66
 1
 0
VERTEX
 8
Poly
 10
418
 20
382
 0
VERTEX
 8
Poly
 10
420
 20
382
 0
VERTEX
 8
Poly
 10
420
 20
383
 0
SEQEND
 8
Poly
 0
LINE
 8
Line
 10
391
 20
297
 11
391
 21
295
 0
POLYLINE
 8
Poly
 66
 1
 0
VERTEX
 8
Poly
 10
410
 20
364
 0
VERTEX
 8
Poly
 10
414
 20
366
 0
VERTEX
 8
Poly
 10
413
 20
367
 0
SEQEND
 8
Poly
 0
LINE
 8
Line
 10
418
 20
382
 11
414
 21
380
 0
LINE
 8
Line
 10
391
 20
295
 11
387
 21
293
 0
POLYLINE
 8
Poly
 66
 1
 0
VERTEX
 8
Poly
 10
410
 20
366
 0
VERTEX
 8
Poly
 10
410
 20
364
 0
VERTEX
 8
Poly
 10
407
 20
364
 0
SEQEND
 8
Poly
 0
POLYLINE
 8
Poly
 66
 1
 0
VERTEX
 8
Poly
 10
412
 20
365
 0
VERTEX
 8
Poly
 10
413
 20
367
 0
VERTEX
 8
Poly
 10
409
 20
370
 0
SEQEND
 8
Poly
 0
POLYLINE
 8
Poly
 66
 1
 0
VERTEX
 8
Poly
 10
415
 20
379
 0
VERTEX
 8
Poly
 10
414
 20
380
 0
VERTEX
 8
Poly
 10
414
 20
373
 0
SEQEND
 8
Poly
 0
LINE
 8
Line
 10
387
 20
293
 11
385
 21
293
 0
POLYLINE
 8
Poly
 66
 1
 0
VERTEX
 8
Poly
 10
407
 20
366
 0
VERTEX
 8
Poly
 10
410
 20
365
 0
VERTEX
 8
Poly
 10
412
 20
365
 0
SEQEND
 8
Poly
 0
LINE
 8
Line
 10
407
 20
364
 11
407
 21
366
 0
POLYLINE
 8
Poly
 66
 1
 0
VERTEX
 8
Poly
 10
409
 20
370
 0
VERTEX
 8
Poly
 10
416
 20
370
 0
VERTEX
 8
Poly
 10
414
 20
373
 0
SEQEND
 8
Poly
 0
LINE
 8
Line
 10
415
 20
379
 11
417
 21
375
 0
POLYLINE
 8
Poly
 66
 1
 0
VERTEX
 8
Poly
 10
385
 20
293
 0
VERTEX
 8
Poly
 10
380
 20
295
 0
VERTEX
 8
Poly
 10
382
 20
293
 0
SEQEND
 8
Poly
 0
LINE
 8
Line
 10
415
 20
379
 11
417
 21
379
 0
LINE
 8
Line
 10
416
 20
379
 11
416
 21
380
 0
LINE
 8
Line
 10
417
 20
375
 11
417
 21
374
 0
LINE
 8
Line
 10
382
 20
293
 11
390
 21
291
 0
LINE
 8
Line
 10
417
 20
379
 11
418
 21
373
 0
POLYLINE
 8
Poly
 66
 1
 0
VERTEX
 8
Poly
 10
390
 20
291
 0
VERTEX
 8
Poly
 10
394
 20
289
 0
VERTEX
 8
Poly
 10
395
 20
290
 0
VERTEX
 8
Poly
 10
395
 20
292
 0
SEQEND
 8
Poly
 0
LINE
 8
Line
 10
418
 20
373
 11
419
 21
372
 0
POLYLINE
 8
Poly
 66
 1
 0
VERTEX
 8
Poly
 10
407
 20
303
 0
VERTEX
 8
Poly
 10
407
 20
301
 0
VERTEX
 8
Poly
 10
408
 20
300
 0
VERTEX
 8
Poly
 10
412
 20
299
 0
SEQEND
 8
Poly
 0
LINE
 8
Line
 10
395
 20
292
 11
399
 21
291
 0
POLYLINE
 8
Poly
 66
 1
 0
VERTEX
 8
Poly
 10
423
 20
371
 0
VERTEX
 8
Poly
 10
419
 20
372
 0
VERTEX
 8
Poly
 10
418
 20
367
 0
VERTEX
 8
Poly
 10
419
 20
366
 0
VERTEX
 8
Poly
 10
423
 20
367
 0
SEQEND
 8
Poly
 0
POLYLINE
 8
Poly
 66
 1
 0
VERTEX
 8
Poly
 10
412
 20
298
 0
VERTEX
 8
Poly
 10
412
 20
299
 0
VERTEX
 8
Poly
 10
401
 20
299
 0
SEQEND
 8
Poly
 0
POLYLINE
 8
Poly
 66
 1
 0
VERTEX
 8
Poly
 10
412
 20
299
 0
VERTEX
 8
Poly
 10
416
 20
300
 0
VERTEX
 8
Poly
 10
412
 20
298
 0
SEQEND
 8
Poly
 0
LINE
 8
Line
 10
399
 20
291
 11
403
 21
289
 0
LINE
 8
Line
 10
414
 20
293
 11
409
 21
295
 0
POLYLINE
 8
Poly
 66
 1
 0
VERTEX
 8
Poly
 10
423
 20
367
 0
VERTEX
 8
Poly
 10
424
 20
370
 0
VERTEX
 8
Poly
 10
423
 20
371
 0
VERTEX
 8
Poly
 10
422
 20
379
 0
VERTEX
 8
Poly
 10
423
 20
380
 0
VERTEX
 8
Poly
 10
425
 20
380
 0
VERTEX
 8
Poly
 10
426
 20
379
 0
VERTEX
 8
Poly
 10
424
 20
370
 0
SEQEND
 8
Poly
 0
LINE
 8
Line
 10
401
 20
299
 11
400
 21
295
 0
LINE
 8
Line
 10
409
 20
294
 11
409
 21
295
 0
LINE
 8
Line
 10
400
 20
295
 11
409
 21
294
 0
POLYLINE
 8
Poly
 66
 1
 0
VERTEX
 8
Poly
 10
354
 20
406
 0
VERTEX
 8
Poly
 10
354
 20
407
 0
VERTEX
 8
Poly
 10
355
 20
405
 0
VERTEX
 8
Poly
 10
354
 20
406
 0
VERTEX
 8
Poly
 10
355
 20
405
 0
SEQEND
 8
Poly
 0
POLYLINE
 8
Poly
 66
 1
 0
VERTEX
 8
Poly
 10
359
 20
406
 0
VERTEX
 8
Poly
 10
360
 20
407
 0
VERTEX
 8
Poly
 10
360
 20
405
 0
VERTEX
 8
Poly
 10
359
 20
406
 0
VERTEX
 8
Poly
 10
358
 20
405
 0
SEQEND
 8
Poly
 0
LINE
 8
Line
 10
358
 20
404
 11
360
 21
405
 0
POLYLINE
 8
Poly
 66
 1
 0
VERTEX
 8
Poly
 10
358
 20
404
 0
VERTEX
 8
Poly
 10
358
 20
405
 0
VERTEX
 8
Poly
 10
357
 20
405
 0
SEQEND
 8
Poly
 0
POLYLINE
 8
Poly
 66
 1
 0
VERTEX
 8
Poly
 10
190
 20
404
 0
VERTEX
 8
Poly
 10
190
 20
406
 0
VERTEX
 8
Poly
 10
192
 20
406
 0
SEQEND
 8
Poly
 0
LINE
 8
Line
 10
192
 20
404
 11
190
 21
404
 0
LINE
 8
Line
 10
192
 20
406
 11
192
 21
404
 0
POLYLINE
 8
Poly
 66
 1
 0
VERTEX
 8
Poly
 10
221
 20
402
 0
VERTEX
 8
Poly
 10
213
 20
403
 0
VERTEX
 8
Poly
 10
212
 20
406
 0
VERTEX
 8
Poly
 10
211
 20
404
 0
SEQEND
 8
Poly
 0
POLYLINE
 8
Poly
 66
 1
 0
VERTEX
 8
Poly
 10
211
 20
404
 0
VERTEX
 8
Poly
 10
210
 20
400
 0
VERTEX
 8
Poly
 10
212
 20
395
 0
VERTEX
 8
Poly
 10
218
 20
400
 0
SEQEND
 8
Poly
 0
POLYLINE
 8
Poly
 66
 1
 0
VERTEX
 8
Poly
 10
221
 20
402
 0
VERTEX
 8
Poly
 10
223
 20
396
 0
VERTEX
 8
Poly
 10
223
 20
397
 0
SEQEND
 8
Poly
 0
LINE
 8
Line
 10
221
 20
400
 11
218
 21
400
 0
LINE
 8
Line
 10
223
 20
397
 11
221
 21
400
 0
LINE
 8
Line
 10
235
 20
405
 11
231
 21
402
 0
LINE
 8
Line
 10
238
 20
400
 11
235
 21
405
 0
POLYLINE
 8
Poly
 66
 1
 0
VERTEX
 8
Poly
 10
184
 20
402
 0
VERTEX
 8
Poly
 10
184
 20
404
 0
VERTEX
 8
Poly
 10
186
 20
404
 0
SEQEND
 8
Poly
 0
LINE
 8
Line
 10
186
 20
402
 11
184
 21
402
 0
LINE
 8
Line
 10
186
 20
404
 11
186
 21
402
 0
POLYLINE
 8
Poly
 66
 1
 0
VERTEX
 8
Poly
 10
255
 20
401
 0
VERTEX
 8
Poly
 10
253
 20
404
 0
VERTEX
 8
Poly
 10
255
 20
401
 0
VERTEX
 8
Poly
 10
256
 20
401
 0
SEQEND
 8
Poly
 0
LINE
 8
Line
 10
320
 20
403
 11
322
 21
398
 0
LINE
 8
Line
 10
321
 20
398
 11
319
 21
402
 0
POLYLINE
 8
Poly
 66
 1
 0
VERTEX
 8
Poly
 10
321
 20
398
 0
VERTEX
 8
Poly
 10
322
 20
398
 0
VERTEX
 8
Poly
 10
322
 20
397
 0
SEQEND
 8
Poly
 0
POLYLINE
 8
Poly
 66
 1
 0
VERTEX
 8
Poly
 10
326
 20
403
 0
VERTEX
 8
Poly
 10
326
 20
404
 0
VERTEX
 8
Poly
 10
327
 20
402
 0
VERTEX
 8
Poly
 10
326
 20
403
 0
VERTEX
 8
Poly
 10
327
 20
402
 0
SEQEND
 8
Poly
 0
LINE
 8
Line
 10
350
 20
404
 11
354
 21
397
 0
LINE
 8
Line
 10
354
 20
397
 11
354
 21
395
 0
LINE
 8
Line
 10
358
 20
391
 11
344
 21
391
 0
LINE
 8
Line
 10
354
 20
395
 11
350
 21
393
 0
LINE
 8
Line
 10
357
 20
391
 11
356
 21
389
 0
LINE
 8
Line
 10
344
 20
391
 11
348
 21
398
 0
LINE
 8
Line
 10
350
 20
393
 11
349
 21
398
 0
POLYLINE
 8
Poly
 66
 1
 0
VERTEX
 8
Poly
 10
356
 20
388
 0
VERTEX
 8
Poly
 10
356
 20
389
 0
VERTEX
 8
Poly
 10
356
 20
388
 0
SEQEND
 8
Poly
 0
POLYLINE
 8
Poly
 66
 1
 0
VERTEX
 8
Poly
 10
348
 20
398
 0
VERTEX
 8
Poly
 10
349
 20
398
 0
VERTEX
 8
Poly
 10
349
 20
399
 0
SEQEND
 8
Poly
 0
LINE
 8
Line
 10
356
 20
388
 11
357
 21
388
 0
POLYLINE
 8
Poly
 66
 1
 0
VERTEX
 8
Poly
 10
245
 20
398
 0
VERTEX
 8
Poly
 10
247
 20
402
 0
VERTEX
 8
Poly
 10
246
 20
397
 0
VERTEX
 8
Poly
 10
245
 20
398
 0
VERTEX
 8
Poly
 10
243
 20
398
 0
SEQEND
 8
Poly
 0
LINE
 8
Line
 10
246
 20
397
 11
247
 21
396
 0
LINE
 8
Line
 10
243
 20
398
 11
240
 21
399
 0
POLYLINE
 8
Poly
 66
 1
 0
VERTEX
 8
Poly
 10
248
 20
395
 0
VERTEX
 8
Poly
 10
247
 20
396
 0
VERTEX
 8
Poly
 10
242
 20
395
 0
SEQEND
 8
Poly
 0
POLYLINE
 8
Poly
 66
 1
 0
VERTEX
 8
Poly
 10
249
 20
394
 0
VERTEX
 8
Poly
 10
248
 20
395
 0
VERTEX
 8
Poly
 10
250
 20
394
 0
SEQEND
 8
Poly
 0
LINE
 8
Line
 10
242
 20
395
 11
244
 21
390
 0
LINE
 8
Line
 10
240
 20
399
 11
240
 21
388
 0
POLYLINE
 8
Poly
 66
 1
 0
VERTEX
 8
Poly
 10
250
 20
394
 0
VERTEX
 8
Poly
 10
249
 20
394
 0
VERTEX
 8
Poly
 10
244
 20
390
 0
SEQEND
 8
Poly
 0
POLYLINE
 8
Poly
 66
 1
 0
VERTEX
 8
Poly
 10
250
 20
394
 0
VERTEX
 8
Poly
 10
250
 20
386
 0
VERTEX
 8
Poly
 10
244
 20
386
 0
SEQEND
 8
Poly
 0
POLYLINE
 8
Poly
 66
 1
 0
VERTEX
 8
Poly
 10
240
 20
388
 0
VERTEX
 8
Poly
 10
237
 20
379
 0
VERTEX
 8
Poly
 10
244
 20
374
 0
SEQEND
 8
Poly
 0
LINE
 8
Line
 10
244
 20
386
 11
244
 21
384
 0
LINE
 8
Line
 10
244
 20
374
 11
245
 21
378
 0
LINE
 8
Line
 10
244
 20
384
 11
240
 21
384
 0
LINE
 8
Line
 10
245
 20
378
 11
248
 21
379
 0
POLYLINE
 8
Poly
 66
 1
 0
VERTEX
 8
Poly
 10
240
 20
384
 0
VERTEX
 8
Poly
 10
240
 20
382
 0
VERTEX
 8
Poly
 10
241
 20
381
 0
VERTEX
 8
Poly
 10
248
 20
379
 0
SEQEND
 8
Poly
 0
POLYLINE
 8
Poly
 66
 1
 0
VERTEX
 8
Poly
 10
281
 20
398
 0
VERTEX
 8
Poly
 10
277
 20
401
 0
VERTEX
 8
Poly
 10
277
 20
402
 0
VERTEX
 8
Poly
 10
278
 20
401
 0
SEQEND
 8
Poly
 0
LINE
 8
Line
 10
281
 20
401
 11
278
 21
401
 0
LINE
 8
Line
 10
281
 20
398
 11
281
 21
401
 0
POLYLINE
 8
Poly
 66
 1
 0
VERTEX
 8
Poly
 10
359
 20
402
 0
VERTEX
 8
Poly
 10
359
 20
399
 0
VERTEX
 8
Poly
 10
360
 20
398
 0
VERTEX
 8
Poly
 10
361
 20
400
 0
VERTEX
 8
Poly
 10
359
 20
402
 0
SEQEND
 8
Poly
 0
POLYLINE
 8
Poly
 66
 1
 0
VERTEX
 8
Poly
 10
403
 20
402
 0
VERTEX
 8
Poly
 10
405
 20
398
 0
VERTEX
 8
Poly
 10
403
 20
402
 0
SEQEND
 8
Poly
 0
POLYLINE
 8
Poly
 66
 1
 0
VERTEX
 8
Poly
 10
379
 20
396
 0
VERTEX
 8
Poly
 10
380
 20
401
 0
VERTEX
 8
Poly
 10
382
 20
399
 0
SEQEND
 8
Poly
 0
POLYLINE
 8
Poly
 66
 1
 0
VERTEX
 8
Poly
 10
379
 20
396
 0
VERTEX
 8
Poly
 10
383
 20
395
 0
VERTEX
 8
Poly
 10
383
 20
397
 0
SEQEND
 8
Poly
 0
POLYLINE
 8
Poly
 66
 1
 0
VERTEX
 8
Poly
 10
382
 20
399
 0
VERTEX
 8
Poly
 10
386
 20
399
 0
VERTEX
 8
Poly
 10
386
 20
397
 0
VERTEX
 8
Poly
 10
383
 20
397
 0
SEQEND
 8
Poly
 0
POLYLINE
 8
Poly
 66
 1
 0
VERTEX
 8
Poly
 10
328
 20
399
 0
VERTEX
 8
Poly
 10
329
 20
400
 0
VERTEX
 8
Poly
 10
329
 20
398
 0
VERTEX
 8
Poly
 10
328
 20
399
 0
VERTEX
 8
Poly
 10
327
 20
395
 0
SEQEND
 8
Poly
 0
POLYLINE
 8
Poly
 66
 1
 0
VERTEX
 8
Poly
 10
329
 20
398
 0
VERTEX
 8
Poly
 10
328
 20
396
 0
VERTEX
 8
Poly
 10
327
 20
395
 0
VERTEX
 8
Poly
 10
328
 20
392
 0
VERTEX
 8
Poly
 10
328
 20
396
 0
SEQEND
 8
Poly
 0
LINE
 8
Line
 10
328
 20
392
 11
327
 21
391
 0
POLYLINE
 8
Poly
 66
 1
 0
VERTEX
 8
Poly
 10
374
 20
394
 0
VERTEX
 8
Poly
 10
372
 20
394
 0
VERTEX
 8
Poly
 10
366
 20
400
 0
VERTEX
 8
Poly
 10
365
 20
397
 0
VERTEX
 8
Poly
 10
367
 20
395
 0
VERTEX
 8
Poly
 10
370
 20
395
 0
SEQEND
 8
Poly
 0
LINE
 8
Line
 10
370
 20
395
 11
370
 21
393
 0
LINE
 8
Line
 10
374
 20
394
 11
374
 21
390
 0
LINE
 8
Line
 10
370
 20
393
 11
368
 21
391
 0
POLYLINE
 8
Poly
 66
 1
 0
VERTEX
 8
Poly
 10
374
 20
390
 0
VERTEX
 8
Poly
 10
377
 20
388
 0
VERTEX
 8
Poly
 10
364
 20
389
 0
VERTEX
 8
Poly
 10
364
 20
391
 0
VERTEX
 8
Poly
 10
368
 20
391
 0
SEQEND
 8
Poly
 0
POLYLINE
 8
Poly
 66
 1
 0
VERTEX
 8
Poly
 10
400
 20
399
 0
VERTEX
 8
Poly
 10
400
 20
400
 0
VERTEX
 8
Poly
 10
400
 20
399
 0
SEQEND
 8
Poly
 0
POLYLINE
 8
Poly
 66
 1
 0
VERTEX
 8
Poly
 10
204
 20
399
 0
VERTEX
 8
Poly
 10
203
 20
395
 0
VERTEX
 8
Poly
 10
207
 20
397
 0
VERTEX
 8
Poly
 10
204
 20
399
 0
SEQEND
 8
Poly
 0
POLYLINE
 8
Poly
 66
 1
 0
VERTEX
 8
Poly
 10
289
 20
397
 0
VERTEX
 8
Poly
 10
289
 20
398
 0
VERTEX
 8
Poly
 10
288
 20
397
 0
SEQEND
 8
Poly
 0
LINE
 8
Line
 10
289
 20
398
 11
289
 21
397
 0
POLYLINE
 8
Poly
 66
 1
 0
VERTEX
 8
Poly
 10
294
 20
397
 0
VERTEX
 8
Poly
 10
295
 20
395
 0
VERTEX
 8
Poly
 10
296
 20
395
 0
SEQEND
 8
Poly
 0
POLYLINE
 8
Poly
 66
 1
 0
VERTEX
 8
Poly
 10
294
 20
397
 0
VERTEX
 8
Poly
 10
292
 20
392
 0
VERTEX
 8
Poly
 10
293
 20
392
 0
SEQEND
 8
Poly
 0
LINE
 8
Line
 10
296
 20
390
 11
296
 21
395
 0
POLYLINE
 8
Poly
 66
 1
 0
VERTEX
 8
Poly
 10
293
 20
392
 0
VERTEX
 8
Poly
 10
296
 20
390
 0
VERTEX
 8
Poly
 10
297
 20
390
 0
SEQEND
 8
Poly
 0
POLYLINE
 8
Poly
 66
 1
 0
VERTEX
 8
Poly
 10
362
 20
395
 0
VERTEX
 8
Poly
 10
363
 20
396
 0
VERTEX
 8
Poly
 10
363
 20
394
 0
VERTEX
 8
Poly
 10
362
 20
395
 0
VERTEX
 8
Poly
 10
363
 20
394
 0
SEQEND
 8
Poly
 0
POLYLINE
 8
Poly
 66
 1
 0
VERTEX
 8
Poly
 10
152
 20
393
 0
VERTEX
 8
Poly
 10
152
 20
395
 0
VERTEX
 8
Poly
 10
154
 20
395
 0
SEQEND
 8
Poly
 0
LINE
 8
Line
 10
154
 20
393
 11
152
 21
393
 0
LINE
 8
Line
 10
154
 20
395
 11
154
 21
393
 0
POLYLINE
 8
Poly
 66
 1
 0
VERTEX
 8
Poly
 10
417
 20
395
 0
VERTEX
 8
Poly
 10
416
 20
394
 0
VERTEX
 8
Poly
 10
419
 20
392
 0
SEQEND
 8
Poly
 0
POLYLINE
 8
Poly
 66
 1
 0
VERTEX
 8
Poly
 10
417
 20
395
 0
VERTEX
 8
Poly
 10
430
 20
393
 0
VERTEX
 8
Poly
 10
430
 20
392
 0
SEQEND
 8
Poly
 0
POLYLINE
 8
Poly
 66
 1
 0
VERTEX
 8
Poly
 10
419
 20
392
 0
VERTEX
 8
Poly
 10
430
 20
390
 0
VERTEX
 8
Poly
 10
431
 20
389
 0
VERTEX
 8
Poly
 10
434
 20
380
 0
VERTEX
 8
Poly
 10
435
 20
380
 0
SEQEND
 8
Poly
 0
POLYLINE
 8
Poly
 66
 1
 0
VERTEX
 8
Poly
 10
218
 20
391
 0
VERTEX
 8
Poly
 10
215
 20
394
 0
VERTEX
 8
Poly
 10
220
 20
394
 0
VERTEX
 8
Poly
 10
218
 20
391
 0
VERTEX
 8
Poly
 10
219
 20
390
 0
SEQEND
 8
Poly
 0
POLYLINE
 8
Poly
 66
 1
 0
VERTEX
 8
Poly
 10
234
 20
390
 0
VERTEX
 8
Poly
 10
235
 20
394
 0
VERTEX
 8
Poly
 10
233
 20
392
 0
SEQEND
 8
Poly
 0
LINE
 8
Line
 10
234
 20
391
 11
234
 21
390
 0
POLYLINE
 8
Poly
 66
 1
 0
VERTEX
 8
Poly
 10
234
 20
391
 0
VERTEX
 8
Poly
 10
233
 20
392
 0
VERTEX
 8
Poly
 10
232
 20
390
 0
VERTEX
 8
Poly
 10
234
 20
390
 0
SEQEND
 8
Poly
 0
LINE
 8
Line
 10
233
 20
392
 11
232
 21
392
 0
LINE
 8
Line
 10
234
 20
390
 11
232
 21
390
 0
POLYLINE
 8
Poly
 66
 1
 0
VERTEX
 8
Poly
 10
223
 20
392
 0
VERTEX
 8
Poly
 10
223
 20
393
 0
VERTEX
 8
Poly
 10
224
 20
391
 0
VERTEX
 8
Poly
 10
223
 20
392
 0
VERTEX
 8
Poly
 10
224
 20
391
 0
SEQEND
 8
Poly
 0
POLYLINE
 8
Poly
 66
 1
 0
VERTEX
 8
Poly
 10
334
 20
391
 0
VERTEX
 8
Poly
 10
333
 20
393
 0
VERTEX
 8
Poly
 10
335
 20
392
 0
VERTEX
 8
Poly
 10
334
 20
391
 0
VERTEX
 8
Poly
 10
335
 20
392
 0
SEQEND
 8
Poly
 0
POLYLINE
 8
Poly
 66
 1
 0
VERTEX
 8
Poly
 10
206
 20
392
 0
VERTEX
 8
Poly
 10
213
 20
385
 0
VERTEX
 8
Poly
 10
208
 20
385
 0
SEQEND
 8
Poly
 0
LINE
 8
Line
 10
206
 20
387
 11
206
 21
392
 0
LINE
 8
Line
 10
208
 20
385
 11
206
 21
387
 0
POLYLINE
 8
Poly
 66
 1
 0
VERTEX
 8
Poly
 10
315
 20
391
 0
VERTEX
 8
Poly
 10
314
 20
392
 0
VERTEX
 8
Poly
 10
314
 20
390
 0
VERTEX
 8
Poly
 10
315
 20
391
 0
VERTEX
 8
Poly
 10
315
 20
389
 0
VERTEX
 8
Poly
 10
314
 20
390
 0
SEQEND
 8
Poly
 0
POLYLINE
 8
Poly
 66
 1
 0
VERTEX
 8
Poly
 10
165
 20
388
 0
VERTEX
 8
Poly
 10
165
 20
390
 0
VERTEX
 8
Poly
 10
167
 20
390
 0
SEQEND
 8
Poly
 0
LINE
 8
Line
 10
167
 20
388
 11
165
 21
388
 0
LINE
 8
Line
 10
167
 20
390
 11
167
 21
388
 0
POLYLINE
 8
Poly
 66
 1
 0
VERTEX
 8
Poly
 10
290
 20
388
 0
VERTEX
 8
Poly
 10
291
 20
390
 0
VERTEX
 8
Poly
 10
290
 20
388
 0
SEQEND
 8
Poly
 0
POLYLINE
 8
Poly
 66
 1
 0
VERTEX
 8
Poly
 10
300
 20
388
 0
VERTEX
 8
Poly
 10
301
 20
390
 0
VERTEX
 8
Poly
 10
303
 20
388
 0
SEQEND
 8
Poly
 0
POLYLINE
 8
Poly
 66
 1
 0
VERTEX
 8
Poly
 10
300
 20
388
 0
VERTEX
 8
Poly
 10
297
 20
388
 0
VERTEX
 8
Poly
 10
297
 20
386
 0
SEQEND
 8
Poly
 0
LINE
 8
Line
 10
303
 20
386
 11
303
 21
388
 0
LINE
 8
Line
 10
297
 20
386
 11
303
 21
386
 0
POLYLINE
 8
Poly
 66
 1
 0
VERTEX
 8
Poly
 10
332
 20
386
 0
VERTEX
 8
Poly
 10
330
 20
388
 0
VERTEX
 8
Poly
 10
332
 20
386
 0
VERTEX
 8
Poly
 10
333
 20
387
 0
SEQEND
 8
Poly
 0
POLYLINE
 8
Poly
 66
 1
 0
VERTEX
 8
Poly
 10
352
 20
388
 0
VERTEX
 8
Poly
 10
351
 20
388
 0
VERTEX
 8
Poly
 10
354
 20
384
 0
SEQEND
 8
Poly
 0
LINE
 8
Line
 10
351
 20
388
 11
350
 21
386
 0
LINE
 8
Line
 10
347
 20
384
 11
354
 21
384
 0
LINE
 8
Line
 10
350
 20
386
 11
347
 21
384
 0
POLYLINE
 8
Poly
 66
 1
 0
VERTEX
 8
Poly
 10
365
 20
386
 0
VERTEX
 8
Poly
 10
365
 20
387
 0
VERTEX
 8
Poly
 10
364
 20
386
 0
SEQEND
 8
Poly
 0
LINE
 8
Line
 10
365
 20
387
 11
365
 21
386
 0
POLYLINE
 8
Poly
 66
 1
 0
VERTEX
 8
Poly
 10
218
 20
384
 0
VERTEX
 8
Poly
 10
217
 20
386
 0
VERTEX
 8
Poly
 10
218
 20
384
 0
VERTEX
 8
Poly
 10
219
 20
384
 0
SEQEND
 8
Poly
 0
POLYLINE
 8
Poly
 66
 1
 0
VERTEX
 8
Poly
 10
295
 20
384
 0
VERTEX
 8
Poly
 10
294
 20
386
 0
VERTEX
 8
Poly
 10
294
 20
383
 0
VERTEX
 8
Poly
 10
295
 20
384
 0
VERTEX
 8
Poly
 10
298
 20
384
 0
SEQEND
 8
Poly
 0
LINE
 8
Line
 10
294
 20
383
 11
295
 21
382
 0
POLYLINE
 8
Poly
 66
 1
 0
VERTEX
 8
Poly
 10
383
 20
378
 0
VERTEX
 8
Poly
 10
383
 20
380
 0
VERTEX
 8
Poly
 10
391
 20
386
 0
VERTEX
 8
Poly
 10
394
 20
386
 0
SEQEND
 8
Poly
 0
LINE
 8
Line
 10
394
 20
386
 11
394
 21
384
 0
LINE
 8
Line
 10
383
 20
378
 11
386
 21
376
 0
LINE
 8
Line
 10
394
 20
384
 11
400
 21
378
 0
POLYLINE
 8
Poly
 66
 1
 0
VERTEX
 8
Poly
 10
386
 20
376
 0
VERTEX
 8
Poly
 10
392
 20
374
 0
VERTEX
 8
Poly
 10
393
 20
372
 0
SEQEND
 8
Poly
 0
LINE
 8
Line
 10
400
 20
378
 11
400
 21
376
 0
LINE
 8
Line
 10
393
 20
372
 11
395
 21
372
 0
LINE
 8
Line
 10
396
 20
376
 11
400
 21
376
 0
LINE
 8
Line
 10
395
 20
372
 11
396
 21
376
 0
POLYLINE
 8
Poly
 66
 1
 0
VERTEX
 8
Poly
 10
206
 20
384
 0
VERTEX
 8
Poly
 10
206
 20
385
 0
VERTEX
 8
Poly
 10
205
 20
382
 0
VERTEX
 8
Poly
 10
208
 20
380
 0
VERTEX
 8
Poly
 10
212
 20
381
 0
SEQEND
 8
Poly
 0
LINE
 8
Line
 10
212
 20
382
 11
206
 21
384
 0
POLYLINE
 8
Poly
 66
 1
 0
VERTEX
 8
Poly
 10
212
 20
382
 0
VERTEX
 8
Poly
 10
212
 20
381
 0
VERTEX
 8
Poly
 10
213
 20
381
 0
SEQEND
 8
Poly
 0
POLYLINE
 8
Poly
 66
 1
 0
VERTEX
 8
Poly
 10
340
 20
385
 0
VERTEX
 8
Poly
 10
342
 20
383
 0
VERTEX
 8
Poly
 10
340
 20
385
 0
SEQEND
 8
Poly
 0
POLYLINE
 8
Poly
 66
 1
 0
VERTEX
 8
Poly
 10
231
 20
383
 0
VERTEX
 8
Poly
 10
232
 20
384
 0
VERTEX
 8
Poly
 10
231
 20
382
 0
VERTEX
 8
Poly
 10
231
 20
383
 0
VERTEX
 8
Poly
 10
230
 20
383
 0
SEQEND
 8
Poly
 0
POLYLINE
 8
Poly
 66
 1
 0
VERTEX
 8
Poly
 10
313
 20
373
 0
VERTEX
 8
Poly
 10
307
 20
374
 0
VERTEX
 8
Poly
 10
306
 20
373
 0
VERTEX
 8
Poly
 10
306
 20
371
 0
SEQEND
 8
Poly
 0
POLYLINE
 8
Poly
 66
 1
 0
VERTEX
 8
Poly
 10
306
 20
371
 0
VERTEX
 8
Poly
 10
303
 20
368
 0
VERTEX
 8
Poly
 10
308
 20
368
 0
SEQEND
 8
Poly
 0
LINE
 8
Line
 10
308
 20
368
 11
303
 21
364
 0
LINE
 8
Line
 10
303
 20
364
 11
301
 21
366
 0
LINE
 8
Line
 10
296
 20
364
 11
296
 21
370
 0
LINE
 8
Line
 10
297
 20
369
 11
301
 21
366
 0
POLYLINE
 8
Poly
 66
 1
 0
VERTEX
 8
Poly
 10
297
 20
369
 0
VERTEX
 8
Poly
 10
296
 20
370
 0
VERTEX
 8
Poly
 10
297
 20
369
 0
SEQEND
 8
Poly
 0
LINE
 8
Line
 10
227
 20
383
 11
228
 21
383
 0
POLYLINE
 8
Poly
 66
 1
 0
VERTEX
 8
Poly
 10
320
 20
382
 0
VERTEX
 8
Poly
 10
322
 20
380
 0
VERTEX
 8
Poly
 10
320
 20
382
 0
SEQEND
 8
Poly
 0
POLYLINE
 8
Poly
 66
 1
 0
VERTEX
 8
Poly
 10
332
 20
382
 0
VERTEX
 8
Poly
 10
334
 20
380
 0
VERTEX
 8
Poly
 10
332
 20
382
 0
SEQEND
 8
Poly
 0
POLYLINE
 8
Poly
 66
 1
 0
VERTEX
 8
Poly
 10
350
 20
382
 0
VERTEX
 8
Poly
 10
348
 20
376
 0
VERTEX
 8
Poly
 10
345
 20
378
 0
VERTEX
 8
Poly
 10
348
 20
379
 0
VERTEX
 8
Poly
 10
350
 20
382
 0
SEQEND
 8
Poly
 0
POLYLINE
 8
Poly
 66
 1
 0
VERTEX
 8
Poly
 10
216
 20
380
 0
VERTEX
 8
Poly
 10
216
 20
381
 0
VERTEX
 8
Poly
 10
213
 20
377
 0
VERTEX
 8
Poly
 10
216
 20
380
 0
SEQEND
 8
Poly
 0
POLYLINE
 8
Poly
 66
 1
 0
VERTEX
 8
Poly
 10
231
 20
380
 0
VERTEX
 8
Poly
 10
231
 20
376
 0
VERTEX
 8
Poly
 10
231
 20
380
 0
SEQEND
 8
Poly
 0
POLYLINE
 8
Poly
 66
 1
 0
VERTEX
 8
Poly
 10
247
 20
375
 0
VERTEX
 8
Poly
 10
250
 20
379
 0
VERTEX
 8
Poly
 10
252
 20
374
 0
VERTEX
 8
Poly
 10
248
 20
374
 0
VERTEX
 8
Poly
 10
247
 20
375
 0
VERTEX
 8
Poly
 10
248
 20
374
 0
SEQEND
 8
Poly
 0
POLYLINE
 8
Poly
 66
 1
 0
VERTEX
 8
Poly
 10
411
 20
379
 0
VERTEX
 8
Poly
 10
407
 20
379
 0
VERTEX
 8
Poly
 10
401
 20
373
 0
VERTEX
 8
Poly
 10
401
 20
371
 0
SEQEND
 8
Poly
 0
LINE
 8
Line
 10
401
 20
371
 11
404
 21
372
 0
LINE
 8
Line
 10
411
 20
377
 11
411
 21
379
 0
LINE
 8
Line
 10
404
 20
372
 11
411
 21
377
 0
POLYLINE
 8
Poly
 66
 1
 0
VERTEX
 8
Poly
 10
205
 20
378
 0
VERTEX
 8
Poly
 10
209
 20
378
 0
VERTEX
 8
Poly
 10
205
 20
378
 0
SEQEND
 8
Poly
 0
POLYLINE
 8
Poly
 66
 1
 0
VERTEX
 8
Poly
 10
220
 20
376
 0
VERTEX
 8
Poly
 10
220
 20
378
 0
VERTEX
 8
Poly
 10
220
 20
376
 0
VERTEX
 8
Poly
 10
222
 20
375
 0
SEQEND
 8
Poly
 0
POLYLINE
 8
Poly
 66
 1
 0
VERTEX
 8
Poly
 10
228
 20
372
 0
VERTEX
 8
Poly
 10
227
 20
375
 0
VERTEX
 8
Poly
 10
228
 20
372
 0
SEQEND
 8
Poly
 0
POLYLINE
 8
Poly
 66
 1
 0
VERTEX
 8
Poly
 10
204
 20
370
 0
VERTEX
 8
Poly
 10
214
 20
370
 0
VERTEX
 8
Poly
 10
215
 20
374
 0
VERTEX
 8
Poly
 10
217
 20
372
 0
SEQEND
 8
Poly
 0
LINE
 8
Line
 10
217
 20
372
 11
221
 21
372
 0
POLYLINE
 8
Poly
 66
 1
 0
VERTEX
 8
Poly
 10
204
 20
370
 0
VERTEX
 8
Poly
 10
206
 20
366
 0
VERTEX
 8
Poly
 10
207
 20
368
 0
SEQEND
 8
Poly
 0
POLYLINE
 8
Poly
 66
 1
 0
VERTEX
 8
Poly
 10
221
 20
372
 0
VERTEX
 8
Poly
 10
221
 20
368
 0
VERTEX
 8
Poly
 10
219
 20
370
 0
SEQEND
 8
Poly
 0
LINE
 8
Line
 10
207
 20
368
 11
209
 21
368
 0
LINE
 8
Line
 10
219
 20
370
 11
217
 21
370
 0
POLYLINE
 8
Poly
 66
 1
 0
VERTEX
 8
Poly
 10
209
 20
368
 0
VERTEX
 8
Poly
 10
209
 20
364
 0
VERTEX
 8
Poly
 10
211
 20
362
 0
VERTEX
 8
Poly
 10
215
 20
362
 0
VERTEX
 8
Poly
 10
215
 20
364
 0
VERTEX
 8
Poly
 10
212
 20
364
 0
SEQEND
 8
Poly
 0
LINE
 8
Line
 10
217
 20
370
 11
217
 21
366
 0
POLYLINE
 8
Poly
 66
 1
 0
VERTEX
 8
Poly
 10
212
 20
364
 0
VERTEX
 8
Poly
 10
212
 20
366
 0
VERTEX
 8
Poly
 10
218
 20
366
 0
SEQEND
 8
Poly
 0
POLYLINE
 8
Poly
 66
 1
 0
VERTEX
 8
Poly
 10
240
 20
368
 0
VERTEX
 8
Poly
 10
234
 20
374
 0
VERTEX
 8
Poly
 10
231
 20
371
 0
VERTEX
 8
Poly
 10
235
 20
371
 0
SEQEND
 8
Poly
 0
POLYLINE
 8
Poly
 66
 1
 0
VERTEX
 8
Poly
 10
235
 20
371
 0
VERTEX
 8
Poly
 10
238
 20
367
 0
VERTEX
 8
Poly
 10
239
 20
367
 0
VERTEX
 8
Poly
 10
240
 20
368
 0
VERTEX
 8
Poly
 10
239
 20
367
 0
SEQEND
 8
Poly
 0
POLYLINE
 8
Poly
 66
 1
 0
VERTEX
 8
Poly
 10
373
 20
371
 0
VERTEX
 8
Poly
 10
373
 20
373
 0
VERTEX
 8
Poly
 10
375
 20
373
 0
SEQEND
 8
Poly
 0
LINE
 8
Line
 10
375
 20
371
 11
373
 21
371
 0
LINE
 8
Line
 10
375
 20
373
 11
375
 21
371
 0
POLYLINE
 8
Poly
 66
 1
 0
VERTEX
 8
Poly
 10
316
 20
371
 0
VERTEX
 8
Poly
 10
318
 20
367
 0
VERTEX
 8
Poly
 10
315
 20
370
 0
SEQEND
 8
Poly
 0
POLYLINE
 8
Poly
 66
 1
 0
VERTEX
 8
Poly
 10
385
 20
369
 0
VERTEX
 8
Poly
 10
385
 20
371
 0
VERTEX
 8
Poly
 10
387
 20
371
 0
SEQEND
 8
Poly
 0
LINE
 8
Line
 10
387
 20
369
 11
385
 21
369
 0
LINE
 8
Line
 10
387
 20
371
 11
387
 21
369
 0
LINE
 8
Line
 10
144
 20
369
 11
144
 21
360
 0
POLYLINE
 8
Poly
 66
 1
 0
VERTEX
 8
Poly
 10
144
 20
369
 0
VERTEX
 8
Poly
 10
166
 20
369
 0
VERTEX
 8
Poly
 10
169
 20
368
 0
SEQEND
 8
Poly
 0
LINE
 8
Line
 10
154
 20
357
 11
154
 21
355
 0
LINE
 8
Line
 10
169
 20
368
 11
177
 21
368
 0
LINE
 8
Line
 10
154
 20
355
 11
144
 21
356
 0
LINE
 8
Line
 10
177
 20
368
 11
176
 21
360
 0
POLYLINE
 8
Poly
 66
 1
 0
VERTEX
 8
Poly
 10
144
 20
356
 0
VERTEX
 8
Poly
 10
145
 20
354
 0
VERTEX
 8
Poly
 10
145
 20
350
 0
SEQEND
 8
Poly
 0
POLYLINE
 8
Poly
 66
 1
 0
VERTEX
 8
Poly
 10
176
 20
360
 0
VERTEX
 8
Poly
 10
177
 20
358
 0
VERTEX
 8
Poly
 10
169
 20
357
 0
SEQEND
 8
Poly
 0
LINE
 8
Line
 10
169
 20
357
 11
169
 21
355
 0
POLYLINE
 8
Poly
 66
 1
 0
VERTEX
 8
Poly
 10
161
 20
348
 0
VERTEX
 8
Poly
 10
160
 20
349
 0
VERTEX
 8
Poly
 10
177
 20
352
 0
SEQEND
 8
Poly
 0
POLYLINE
 8
Poly
 66
 1
 0
VERTEX
 8
Poly
 10
169
 20
355
 0
VERTEX
 8
Poly
 10
176
 20
356
 0
VERTEX
 8
Poly
 10
177
 20
355
 0
VERTEX
 8
Poly
 10
177
 20
352
 0
SEQEND
 8
Poly
 0
LINE
 8
Line
 10
177
 20
347
 11
177
 21
343
 0
LINE
 8
Line
 10
143
 20
341
 11
143
 21
347
 0
POLYLINE
 8
Poly
 66
 1
 0
VERTEX
 8
Poly
 10
233
 20
368
 0
VERTEX
 8
Poly
 10
233
 20
369
 0
VERTEX
 8
Poly
 10
232
 20
367
 0
VERTEX
 8
Poly
 10
233
 20
368
 0
VERTEX
 8
Poly
 10
237
 20
364
 0
SEQEND
 8
Poly
 0
POLYLINE
 8
Poly
 66
 1
 0
VERTEX
 8
Poly
 10
232
 20
367
 0
VERTEX
 8
Poly
 10
231
 20
363
 0
VERTEX
 8
Poly
 10
233
 20
362
 0
SEQEND
 8
Poly
 0
POLYLINE
 8
Poly
 66
 1
 0
VERTEX
 8
Poly
 10
238
 20
363
 0
VERTEX
 8
Poly
 10
237
 20
364
 0
VERTEX
 8
Poly
 10
233
 20
362
 0
SEQEND
 8
Poly
 0
POLYLINE
 8
Poly
 66
 1
 0
VERTEX
 8
Poly
 10
396
 20
369
 0
VERTEX
 8
Poly
 10
396
 20
367
 0
VERTEX
 8
Poly
 10
399
 20
365
 0
VERTEX
 8
Poly
 10
403
 20
365
 0
SEQEND
 8
Poly
 0
LINE
 8
Line
 10
403
 20
367
 11
396
 21
369
 0
LINE
 8
Line
 10
403
 20
365
 11
403
 21
367
 0
POLYLINE
 8
Poly
 66
 1
 0
VERTEX
 8
Poly
 10
201
 20
368
 0
VERTEX
 8
Poly
 10
182
 20
368
 0
VERTEX
 8
Poly
 10
179
 20
363
 0
VERTEX
 8
Poly
 10
182
 20
360
 0
SEQEND
 8
Poly
 0
LINE
 8
Line
 10
182
 20
360
 11
182
 21
358
 0
POLYLINE
 8
Poly
 66
 1
 0
VERTEX
 8
Poly
 10
201
 20
368
 0
VERTEX
 8
Poly
 10
201
 20
359
 0
VERTEX
 8
Poly
 10
200
 20
358
 0
VERTEX
 8
Poly
 10
196
 20
360
 0
SEQEND
 8
Poly
 0
POLYLINE
 8
Poly
 66
 1
 0
VERTEX
 8
Poly
 10
182
 20
358
 0
VERTEX
 8
Poly
 10
180
 20
358
 0
VERTEX
 8
Poly
 10
179
 20
357
 0
VERTEX
 8
Poly
 10
179
 20
353
 0
VERTEX
 8
Poly
 10
183
 20
349
 0
VERTEX
 8
Poly
 10
191
 20
351
 0
SEQEND
 8
Poly
 0
LINE
 8
Line
 10
196
 20
360
 11
194
 21
360
 0
LINE
 8
Line
 10
191
 20
351
 11
191
 21
350
 0
LINE
 8
Line
 10
194
 20
360
 11
193
 21
356
 0
POLYLINE
 8
Poly
 66
 1
 0
VERTEX
 8
Poly
 10
191
 20
350
 0
VERTEX
 8
Poly
 10
197
 20
350
 0
VERTEX
 8
Poly
 10
197
 20
352
 0
SEQEND
 8
Poly
 0
POLYLINE
 8
Poly
 66
 1
 0
VERTEX
 8
Poly
 10
193
 20
356
 0
VERTEX
 8
Poly
 10
200
 20
356
 0
VERTEX
 8
Poly
 10
201
 20
355
 0
VERTEX
 8
Poly
 10
201
 20
352
 0
VERTEX
 8
Poly
 10
200
 20
351
 0
VERTEX
 8
Poly
 10
197
 20
351
 0
SEQEND
 8
Poly
 0
POLYLINE
 8
Poly
 66
 1
 0
VERTEX
 8
Poly
 10
156
 20
364
 0
VERTEX
 8
Poly
 10
156
 20
366
 0
VERTEX
 8
Poly
 10
158
 20
366
 0
SEQEND
 8
Poly
 0
LINE
 8
Line
 10
158
 20
364
 11
156
 21
364
 0
LINE
 8
Line
 10
158
 20
366
 11
158
 21
364
 0
POLYLINE
 8
Poly
 66
 1
 0
VERTEX
 8
Poly
 10
226
 20
364
 0
VERTEX
 8
Poly
 10
224
 20
361
 0
VERTEX
 8
Poly
 10
226
 20
364
 0
SEQEND
 8
Poly
 0
POLYLINE
 8
Poly
 66
 1
 0
VERTEX
 8
Poly
 10
257
 20
362
 0
VERTEX
 8
Poly
 10
257
 20
364
 0
VERTEX
 8
Poly
 10
260
 20
364
 0
SEQEND
 8
Poly
 0
LINE
 8
Line
 10
260
 20
362
 11
257
 21
362
 0
LINE
 8
Line
 10
260
 20
364
 11
260
 21
362
 0
POLYLINE
 8
Poly
 66
 1
 0
VERTEX
 8
Poly
 10
355
 20
360
 0
VERTEX
 8
Poly
 10
357
 20
364
 0
VERTEX
 8
Poly
 10
359
 20
364
 0
VERTEX
 8
Poly
 10
355
 20
360
 0
SEQEND
 8
Poly
 0
POLYLINE
 8
Poly
 66
 1
 0
VERTEX
 8
Poly
 10
390
 20
362
 0
VERTEX
 8
Poly
 10
390
 20
364
 0
VERTEX
 8
Poly
 10
392
 20
364
 0
SEQEND
 8
Poly
 0
LINE
 8
Line
 10
392
 20
362
 11
390
 21
362
 0
LINE
 8
Line
 10
392
 20
364
 11
392
 21
362
 0
POLYLINE
 8
Poly
 66
 1
 0
VERTEX
 8
Poly
 10
219
 20
360
 0
VERTEX
 8
Poly
 10
219
 20
361
 0
VERTEX
 8
Poly
 10
218
 20
360
 0
SEQEND
 8
Poly
 0
LINE
 8
Line
 10
219
 20
361
 11
219
 21
360
 0
POLYLINE
 8
Poly
 66
 1
 0
VERTEX
 8
Poly
 10
333
 20
359
 0
VERTEX
 8
Poly
 10
332
 20
361
 0
VERTEX
 8
Poly
 10
333
 20
359
 0
VERTEX
 8
Poly
 10
334
 20
359
 0
SEQEND
 8
Poly
 0
POLYLINE
 8
Poly
 66
 1
 0
VERTEX
 8
Poly
 10
409
 20
357
 0
VERTEX
 8
Poly
 10
410
 20
361
 0
VERTEX
 8
Poly
 10
412
 20
361
 0
SEQEND
 8
Poly
 0
LINE
 8
Line
 10
411
 20
357
 11
409
 21
357
 0
LINE
 8
Line
 10
412
 20
361
 11
411
 21
357
 0
POLYLINE
 8
Poly
 66
 1
 0
VERTEX
 8
Poly
 10
414
 20
358
 0
VERTEX
 8
Poly
 10
414
 20
361
 0
VERTEX
 8
Poly
 10
416
 20
361
 0
SEQEND
 8
Poly
 0
LINE
 8
Line
 10
416
 20
358
 11
414
 21
358
 0
LINE
 8
Line
 10
416
 20
361
 11
416
 21
358
 0
POLYLINE
 8
Poly
 66
 1
 0
VERTEX
 8
Poly
 10
210
 20
360
 0
VERTEX
 8
Poly
 10
210
 20
358
 0
VERTEX
 8
Poly
 10
212
 20
357
 0
VERTEX
 8
Poly
 10
216
 20
360
 0
VERTEX
 8
Poly
 10
210
 20
360
 0
SEQEND
 8
Poly
 0
POLYLINE
 8
Poly
 66
 1
 0
VERTEX
 8
Poly
 10
166
 20
356
 0
VERTEX
 8
Poly
 10
160
 20
358
 0
VERTEX
 8
Poly
 10
166
 20
358
 0
VERTEX
 8
Poly
 10
166
 20
356
 0
SEQEND
 8
Poly
 0
POLYLINE
 8
Poly
 66
 1
 0
VERTEX
 8
Poly
 10
288
 20
355
 0
VERTEX
 8
Poly
 10
288
 20
358
 0
VERTEX
 8
Poly
 10
290
 20
358
 0
SEQEND
 8
Poly
 0
LINE
 8
Line
 10
290
 20
355
 11
288
 21
355
 0
LINE
 8
Line
 10
290
 20
358
 11
290
 21
355
 0
POLYLINE
 8
Poly
 66
 1
 0
VERTEX
 8
Poly
 10
187
 20
357
 0
VERTEX
 8
Poly
 10
184
 20
357
 0
VERTEX
 8
Poly
 10
183
 20
356
 0
VERTEX
 8
Poly
 10
183
 20
354
 0
SEQEND
 8
Poly
 0
LINE
 8
Line
 10
187
 20
355
 11
183
 21
354
 0
LINE
 8
Line
 10
187
 20
357
 11
187
 21
355
 0
POLYLINE
 8
Poly
 66
 1
 0
VERTEX
 8
Poly
 10
255
 20
356
 0
VERTEX
 8
Poly
 10
256
 20
357
 0
VERTEX
 8
Poly
 10
255
 20
355
 0
VERTEX
 8
Poly
 10
255
 20
356
 0
VERTEX
 8
Poly
 10
254
 20
356
 0
SEQEND
 8
Poly
 0
LINE
 8
Line
 10
301
 20
357
 11
301
 21
355
 0
LINE
 8
Line
 10
303
 20
355
 11
301
 21
355
 0
LINE
 8
Line
 10
303
 20
357
 11
303
 21
355
 0
POLYLINE
 8
Poly
 66
 1
 0
VERTEX
 8
Poly
 10
388
 20
351
 0
VERTEX
 8
Poly
 10
390
 20
357
 0
VERTEX
 8
Poly
 10
394
 20
357
 0
SEQEND
 8
Poly
 0
POLYLINE
 8
Poly
 66
 1
 0
VERTEX
 8
Poly
 10
387
 20
352
 0
VERTEX
 8
Poly
 10
388
 20
351
 0
VERTEX
 8
Poly
 10
394
 20
355
 0
VERTEX
 8
Poly
 10
394
 20
357
 0
SEQEND
 8
Poly
 0
POLYLINE
 8
Poly
 66
 1
 0
VERTEX
 8
Poly
 10
387
 20
354
 0
VERTEX
 8
Poly
 10
387
 20
352
 0
VERTEX
 8
Poly
 10
387
 20
354
 0
SEQEND
 8
Poly
 0
POLYLINE
 8
Poly
 66
 1
 0
VERTEX
 8
Poly
 10
397
 20
355
 0
VERTEX
 8
Poly
 10
397
 20
357
 0
VERTEX
 8
Poly
 10
402
 20
357
 0
SEQEND
 8
Poly
 0
LINE
 8
Line
 10
402
 20
355
 11
397
 21
355
 0
LINE
 8
Line
 10
402
 20
357
 11
402
 21
355
 0
POLYLINE
 8
Poly
 66
 1
 0
VERTEX
 8
Poly
 10
318
 20
354
 0
VERTEX
 8
Poly
 10
318
 20
356
 0
VERTEX
 8
Poly
 10
320
 20
356
 0
SEQEND
 8
Poly
 0
LINE
 8
Line
 10
318
 20
354
 11
320
 21
354
 0
POLYLINE
 8
Poly
 66
 1
 0
VERTEX
 8
Poly
 10
379
 20
354
 0
VERTEX
 8
Poly
 10
379
 20
356
 0
VERTEX
 8
Poly
 10
381
 20
356
 0
SEQEND
 8
Poly
 0
LINE
 8
Line
 10
381
 20
354
 11
379
 21
354
 0
LINE
 8
Line
 10
381
 20
356
 11
381
 21
354
 0
POLYLINE
 8
Poly
 66
 1
 0
VERTEX
 8
Poly
 10
413
 20
354
 0
VERTEX
 8
Poly
 10
413
 20
356
 0
VERTEX
 8
Poly
 10
415
 20
356
 0
SEQEND
 8
Poly
 0
LINE
 8
Line
 10
415
 20
354
 11
413
 21
354
 0
LINE
 8
Line
 10
415
 20
356
 11
415
 21
354
 0
POLYLINE
 8
Poly
 66
 1
 0
VERTEX
 8
Poly
 10
214
 20
355
 0
VERTEX
 8
Poly
 10
213
 20
355
 0
VERTEX
 8
Poly
 10
214
 20
354
 0
VERTEX
 8
Poly
 10
213
 20
355
 0
SEQEND
 8
Poly
 0
LINE
 8
Line
 10
214
 20
354
 11
215
 21
354
 0
POLYLINE
 8
Poly
 66
 1
 0
VERTEX
 8
Poly
 10
223
 20
354
 0
VERTEX
 8
Poly
 10
222
 20
355
 0
VERTEX
 8
Poly
 10
222
 20
353
 0
VERTEX
 8
Poly
 10
223
 20
354
 0
VERTEX
 8
Poly
 10
222
 20
353
 0
SEQEND
 8
Poly
 0
POLYLINE
 8
Poly
 66
 1
 0
VERTEX
 8
Poly
 10
242
 20
353
 0
VERTEX
 8
Poly
 10
242
 20
355
 0
VERTEX
 8
Poly
 10
244
 20
355
 0
SEQEND
 8
Poly
 0
LINE
 8
Line
 10
244
 20
353
 11
242
 21
353
 0
LINE
 8
Line
 10
244
 20
355
 11
244
 21
353
 0
POLYLINE
 8
Poly
 66
 1
 0
VERTEX
 8
Poly
 10
307
 20
353
 0
VERTEX
 8
Poly
 10
307
 20
355
 0
VERTEX
 8
Poly
 10
309
 20
355
 0
SEQEND
 8
Poly
 0
LINE
 8
Line
 10
309
 20
353
 11
307
 21
353
 0
LINE
 8
Line
 10
309
 20
355
 11
309
 21
353
 0
POLYLINE
 8
Poly
 66
 1
 0
VERTEX
 8
Poly
 10
312
 20
353
 0
VERTEX
 8
Poly
 10
312
 20
355
 0
VERTEX
 8
Poly
 10
314
 20
355
 0
SEQEND
 8
Poly
 0
LINE
 8
Line
 10
314
 20
353
 11
312
 21
353
 0
LINE
 8
Line
 10
314
 20
355
 11
314
 21
353
 0
POLYLINE
 8
Poly
 66
 1
 0
VERTEX
 8
Poly
 10
422
 20
353
 0
VERTEX
 8
Poly
 10
422
 20
355
 0
VERTEX
 8
Poly
 10
424
 20
355
 0
SEQEND
 8
Poly
 0
LINE
 8
Line
 10
424
 20
353
 11
422
 21
353
 0
LINE
 8
Line
 10
424
 20
355
 11
424
 21
353
 0
POLYLINE
 8
Poly
 66
 1
 0
VERTEX
 8
Poly
 10
398
 20
351
 0
VERTEX
 8
Poly
 10
398
 20
353
 0
VERTEX
 8
Poly
 10
400
 20
353
 0
SEQEND
 8
Poly
 0
LINE
 8
Line
 10
400
 20
351
 11
398
 21
351
 0
LINE
 8
Line
 10
400
 20
353
 11
400
 21
351
 0
POLYLINE
 8
Poly
 66
 1
 0
VERTEX
 8
Poly
 10
404
 20
351
 0
VERTEX
 8
Poly
 10
404
 20
353
 0
VERTEX
 8
Poly
 10
407
 20
353
 0
SEQEND
 8
Poly
 0
LINE
 8
Line
 10
407
 20
351
 11
404
 21
351
 0
LINE
 8
Line
 10
407
 20
353
 11
407
 21
351
 0
POLYLINE
 8
Poly
 66
 1
 0
VERTEX
 8
Poly
 10
349
 20
350
 0
VERTEX
 8
Poly
 10
349
 20
352
 0
VERTEX
 8
Poly
 10
352
 20
352
 0
VERTEX
 8
Poly
 10
353
 20
351
 0
VERTEX
 8
Poly
 10
353
 20
349
 0
VERTEX
 8
Poly
 10
349
 20
350
 0
SEQEND
 8
Poly
 0
POLYLINE
 8
Poly
 66
 1
 0
VERTEX
 8
Poly
 10
420
 20
347
 0
VERTEX
 8
Poly
 10
415
 20
350
 0
VERTEX
 8
Poly
 10
415
 20
352
 0
VERTEX
 8
Poly
 10
418
 20
352
 0
SEQEND
 8
Poly
 0
POLYLINE
 8
Poly
 66
 1
 0
VERTEX
 8
Poly
 10
418
 20
352
 0
VERTEX
 8
Poly
 10
420
 20
349
 0
VERTEX
 8
Poly
 10
420
 20
347
 0
SEQEND
 8
Poly
 0
POLYLINE
 8
Poly
 66
 1
 0
VERTEX
 8
Poly
 10
218
 20
349
 0
VERTEX
 8
Poly
 10
219
 20
351
 0
VERTEX
 8
Poly
 10
218
 20
349
 0
VERTEX
 8
Poly
 10
217
 20
349
 0
SEQEND
 8
Poly
 0
POLYLINE
 8
Poly
 66
 1
 0
VERTEX
 8
Poly
 10
307
 20
349
 0
VERTEX
 8
Poly
 10
307
 20
351
 0
VERTEX
 8
Poly
 10
309
 20
351
 0
SEQEND
 8
Poly
 0
LINE
 8
Line
 10
309
 20
349
 11
307
 21
349
 0
LINE
 8
Line
 10
309
 20
351
 11
309
 21
349
 0
POLYLINE
 8
Poly
 66
 1
 0
VERTEX
 8
Poly
 10
395
 20
344
 0
VERTEX
 8
Poly
 10
394
 20
351
 0
VERTEX
 8
Poly
 10
396
 20
351
 0
SEQEND
 8
Poly
 0
POLYLINE
 8
Poly
 66
 1
 0
VERTEX
 8
Poly
 10
396
 20
345
 0
VERTEX
 8
Poly
 10
395
 20
344
 0
VERTEX
 8
Poly
 10
397
 20
343
 0
SEQEND
 8
Poly
 0
POLYLINE
 8
Poly
 66
 1
 0
VERTEX
 8
Poly
 10
396
 20
351
 0
VERTEX
 8
Poly
 10
396
 20
345
 0
VERTEX
 8
Poly
 10
399
 20
342
 0
SEQEND
 8
Poly
 0
LINE
 8
Line
 10
397
 20
342
 11
397
 21
343
 0
LINE
 8
Line
 10
399
 20
342
 11
397
 21
342
 0
POLYLINE
 8
Poly
 66
 1
 0
VERTEX
 8
Poly
 10
423
 20
349
 0
VERTEX
 8
Poly
 10
423
 20
351
 0
VERTEX
 8
Poly
 10
425
 20
351
 0
SEQEND
 8
Poly
 0
LINE
 8
Line
 10
425
 20
349
 11
423
 21
349
 0
LINE
 8
Line
 10
425
 20
351
 11
425
 21
349
 0
POLYLINE
 8
Poly
 66
 1
 0
VERTEX
 8
Poly
 10
411
 20
350
 0
VERTEX
 8
Poly
 10
411
 20
343
 0
VERTEX
 8
Poly
 10
413
 20
350
 0
VERTEX
 8
Poly
 10
411
 20
350
 0
SEQEND
 8
Poly
 0
POLYLINE
 8
Poly
 66
 1
 0
VERTEX
 8
Poly
 10
214
 20
342
 0
VERTEX
 8
Poly
 10
210
 20
349
 0
VERTEX
 8
Poly
 10
207
 20
343
 0
VERTEX
 8
Poly
 10
208
 20
343
 0
SEQEND
 8
Poly
 0
POLYLINE
 8
Poly
 66
 1
 0
VERTEX
 8
Poly
 10
215
 20
343
 0
VERTEX
 8
Poly
 10
214
 20
342
 0
VERTEX
 8
Poly
 10
208
 20
342
 0
VERTEX
 8
Poly
 10
208
 20
343
 0
SEQEND
 8
Poly
 0
POLYLINE
 8
Poly
 66
 1
 0
VERTEX
 8
Poly
 10
218
 20
341
 0
VERTEX
 8
Poly
 10
215
 20
343
 0
VERTEX
 8
Poly
 10
218
 20
345
 0
SEQEND
 8
Poly
 0
LINE
 8
Line
 10
218
 20
341
 11
218
 21
339
 0
LINE
 8
Line
 10
218
 20
339
 11
216
 21
337
 0
LINE
 8
Line
 10
222
 20
336
 11
224
 21
336
 0
POLYLINE
 8
Poly
 66
 1
 0
VERTEX
 8
Poly
 10
217
 20
336
 0
VERTEX
 8
Poly
 10
216
 20
337
 0
VERTEX
 8
Poly
 10
217
 20
336
 0
SEQEND
 8
Poly
 0
POLYLINE
 8
Poly
 66
 1
 0
VERTEX
 8
Poly
 10
224
 20
336
 0
VERTEX
 8
Poly
 10
224
 20
341
 0
VERTEX
 8
Poly
 10
226
 20
341
 0
VERTEX
 8
Poly
 10
226
 20
335
 0
VERTEX
 8
Poly
 10
225
 20
334
 0
VERTEX
 8
Poly
 10
223
 20
334
 0
SEQEND
 8
Poly
 0
LINE
 8
Line
 10
217
 20
336
 11
220
 21
337
 0
POLYLINE
 8
Poly
 66
 1
 0
VERTEX
 8
Poly
 10
223
 20
334
 0
VERTEX
 8
Poly
 10
223
 20
332
 0
VERTEX
 8
Poly
 10
222
 20
331
 0
VERTEX
 8
Poly
 10
219
 20
331
 0
SEQEND
 8
Poly
 0
POLYLINE
 8
Poly
 66
 1
 0
VERTEX
 8
Poly
 10
220
 20
337
 0
VERTEX
 8
Poly
 10
212
 20
329
 0
VERTEX
 8
Poly
 10
217
 20
328
 0
SEQEND
 8
Poly
 0
LINE
 8
Line
 10
219
 20
331
 11
219
 21
327
 0
LINE
 8
Line
 10
217
 20
328
 11
216
 21
324
 0
POLYLINE
 8
Poly
 66
 1
 0
VERTEX
 8
Poly
 10
219
 20
327
 0
VERTEX
 8
Poly
 10
221
 20
323
 0
VERTEX
 8
Poly
 10
224
 20
323
 0
VERTEX
 8
Poly
 10
220
 20
320
 0
SEQEND
 8
Poly
 0
LINE
 8
Line
 10
216
 20
324
 11
211
 21
324
 0
POLYLINE
 8
Poly
 66
 1
 0
VERTEX
 8
Poly
 10
220
 20
320
 0
VERTEX
 8
Poly
 10
217
 20
320
 0
VERTEX
 8
Poly
 10
213
 20
321
 0
SEQEND
 8
Poly
 0
POLYLINE
 8
Poly
 66
 1
 0
VERTEX
 8
Poly
 10
211
 20
324
 0
VERTEX
 8
Poly
 10
211
 20
327
 0
VERTEX
 8
Poly
 10
210
 20
328
 0
VERTEX
 8
Poly
 10
204
 20
329
 0
VERTEX
 8
Poly
 10
205
 20
325
 0
VERTEX
 8
Poly
 10
208
 20
325
 0
SEQEND
 8
Poly
 0
POLYLINE
 8
Poly
 66
 1
 0
VERTEX
 8
Poly
 10
213
 20
321
 0
VERTEX
 8
Poly
 10
210
 20
320
 0
VERTEX
 8
Poly
 10
208
 20
325
 0
SEQEND
 8
Poly
 0
POLYLINE
 8
Poly
 66
 1
 0
VERTEX
 8
Poly
 10
315
 20
347
 0
VERTEX
 8
Poly
 10
315
 20
349
 0
VERTEX
 8
Poly
 10
317
 20
349
 0
SEQEND
 8
Poly
 0
LINE
 8
Line
 10
317
 20
347
 11
315
 21
347
 0
LINE
 8
Line
 10
317
 20
349
 11
317
 21
347
 0
POLYLINE
 8
Poly
 66
 1
 0
VERTEX
 8
Poly
 10
383
 20
344
 0
VERTEX
 8
Poly
 10
383
 20
347
 0
VERTEX
 8
Poly
 10
385
 20
349
 0
VERTEX
 8
Poly
 10
387
 20
349
 0
SEQEND
 8
Poly
 0
LINE
 8
Line
 10
391
 20
342
 11
387
 21
349
 0
LINE
 8
Line
 10
383
 20
344
 11
391
 21
342
 0
POLYLINE
 8
Poly
 66
 1
 0
VERTEX
 8
Poly
 10
405
 20
342
 0
VERTEX
 8
Poly
 10
403
 20
342
 0
VERTEX
 8
Poly
 10
400
 20
349
 0
VERTEX
 8
Poly
 10
402
 20
349
 0
SEQEND
 8
Poly
 0
LINE
 8
Line
 10
402
 20
349
 11
402
 21
348
 0
LINE
 8
Line
 10
405
 20
342
 11
405
 21
346
 0
LINE
 8
Line
 10
402
 20
348
 11
406
 21
348
 0
LINE
 8
Line
 10
406
 20
346
 11
405
 21
346
 0
LINE
 8
Line
 10
406
 20
348
 11
406
 21
346
 0
POLYLINE
 8
Poly
 66
 1
 0
VERTEX
 8
Poly
 10
180
 20
346
 0
VERTEX
 8
Poly
 10
189
 20
348
 0
VERTEX
 8
Poly
 10
197
 20
345
 0
VERTEX
 8
Poly
 10
197
 20
344
 0
SEQEND
 8
Poly
 0
POLYLINE
 8
Poly
 66
 1
 0
VERTEX
 8
Poly
 10
180
 20
346
 0
VERTEX
 8
Poly
 10
180
 20
343
 0
VERTEX
 8
Poly
 10
183
 20
341
 0
VERTEX
 8
Poly
 10
191
 20
345
 0
SEQEND
 8
Poly
 0
POLYLINE
 8
Poly
 66
 1
 0
VERTEX
 8
Poly
 10
197
 20
344
 0
VERTEX
 8
Poly
 10
201
 20
346
 0
VERTEX
 8
Poly
 10
201
 20
341
 0
SEQEND
 8
Poly
 0
LINE
 8
Line
 10
191
 20
345
 11
190
 21
342
 0
LINE
 8
Line
 10
190
 20
341
 11
201
 21
341
 0
POLYLINE
 8
Poly
 66
 1
 0
VERTEX
 8
Poly
 10
190
 20
341
 0
VERTEX
 8
Poly
 10
190
 20
342
 0
VERTEX
 8
Poly
 10
189
 20
342
 0
SEQEND
 8
Poly
 0
POLYLINE
 8
Poly
 66
 1
 0
VERTEX
 8
Poly
 10
223
 20
347
 0
VERTEX
 8
Poly
 10
222
 20
348
 0
VERTEX
 8
Poly
 10
222
 20
346
 0
VERTEX
 8
Poly
 10
223
 20
347
 0
VERTEX
 8
Poly
 10
224
 20
346
 0
SEQEND
 8
Poly
 0
LINE
 8
Line
 10
222
 20
346
 11
223
 21
345
 0
LINE
 8
Line
 10
224
 20
346
 11
225
 21
344
 0
POLYLINE
 8
Poly
 66
 1
 0
VERTEX
 8
Poly
 10
224
 20
344
 0
VERTEX
 8
Poly
 10
223
 20
345
 0
VERTEX
 8
Poly
 10
224
 20
344
 0
VERTEX
 8
Poly
 10
225
 20
344
 0
SEQEND
 8
Poly
 0
POLYLINE
 8
Poly
 66
 1
 0
VERTEX
 8
Poly
 10
246
 20
346
 0
VERTEX
 8
Poly
 10
244
 20
346
 0
VERTEX
 8
Poly
 10
244
 20
348
 0
VERTEX
 8
Poly
 10
246
 20
348
 0
SEQEND
 8
Poly
 0
LINE
 8
Line
 10
246
 20
348
 11
246
 21
342
 0
LINE
 8
Line
 10
246
 20
346
 11
249
 21
348
 0
LINE
 8
Line
 10
249
 20
348
 11
251
 21
348
 0
LINE
 8
Line
 10
255
 20
343
 11
255
 21
345
 0
LINE
 8
Line
 10
251
 20
346
 11
251
 21
348
 0
LINE
 8
Line
 10
255
 20
345
 11
251
 21
346
 0
POLYLINE
 8
Poly
 66
 1
 0
VERTEX
 8
Poly
 10
326
 20
346
 0
VERTEX
 8
Poly
 10
326
 20
348
 0
VERTEX
 8
Poly
 10
329
 20
348
 0
SEQEND
 8
Poly
 0
LINE
 8
Line
 10
329
 20
346
 11
326
 21
346
 0
LINE
 8
Line
 10
329
 20
348
 11
329
 21
346
 0
POLYLINE
 8
Poly
 66
 1
 0
VERTEX
 8
Poly
 10
275
 20
346
 0
VERTEX
 8
Poly
 10
275
 20
347
 0
VERTEX
 8
Poly
 10
277
 20
345
 0
SEQEND
 8
Poly
 0
POLYLINE
 8
Poly
 66
 1
 0
VERTEX
 8
Poly
 10
276
 20
345
 0
VERTEX
 8
Poly
 10
275
 20
346
 0
VERTEX
 8
Poly
 10
276
 20
345
 0
VERTEX
 8
Poly
 10
277
 20
345
 0
SEQEND
 8
Poly
 0
POLYLINE
 8
Poly
 66
 1
 0
VERTEX
 8
Poly
 10
298
 20
344
 0
VERTEX
 8
Poly
 10
301
 20
345
 0
VERTEX
 8
Poly
 10
301
 20
347
 0
VERTEX
 8
Poly
 10
305
 20
341
 0
SEQEND
 8
Poly
 0
LINE
 8
Line
 10
298
 20
340
 11
305
 21
341
 0
LINE
 8
Line
 10
298
 20
344
 11
298
 21
340
 0
POLYLINE
 8
Poly
 66
 1
 0
VERTEX
 8
Poly
 10
281
 20
344
 0
VERTEX
 8
Poly
 10
280
 20
345
 0
VERTEX
 8
Poly
 10
281
 20
343
 0
VERTEX
 8
Poly
 10
281
 20
344
 0
VERTEX
 8
Poly
 10
282
 20
344
 0
SEQEND
 8
Poly
 0
POLYLINE
 8
Poly
 66
 1
 0
VERTEX
 8
Poly
 10
291
 20
339
 0
VERTEX
 8
Poly
 10
291
 20
345
 0
VERTEX
 8
Poly
 10
293
 20
345
 0
SEQEND
 8
Poly
 0
LINE
 8
Line
 10
293
 20
339
 11
291
 21
339
 0
LINE
 8
Line
 10
293
 20
345
 11
293
 21
339
 0
POLYLINE
 8
Poly
 66
 1
 0
VERTEX
 8
Poly
 10
319
 20
343
 0
VERTEX
 8
Poly
 10
319
 20
345
 0
VERTEX
 8
Poly
 10
321
 20
345
 0
SEQEND
 8
Poly
 0
LINE
 8
Line
 10
321
 20
343
 11
319
 21
343
 0
LINE
 8
Line
 10
321
 20
345
 11
321
 21
343
 0
POLYLINE
 8
Poly
 66
 1
 0
VERTEX
 8
Poly
 10
204
 20
343
 0
VERTEX
 8
Poly
 10
204
 20
344
 0
VERTEX
 8
Poly
 10
203
 20
342
 0
VERTEX
 8
Poly
 10
204
 20
343
 0
VERTEX
 8
Poly
 10
205
 20
340
 0
SEQEND
 8
Poly
 0
POLYLINE
 8
Poly
 66
 1
 0
VERTEX
 8
Poly
 10
203
 20
342
 0
VERTEX
 8
Poly
 10
203
 20
335
 0
VERTEX
 8
Poly
 10
207
 20
332
 0
VERTEX
 8
Poly
 10
212
 20
334
 0
VERTEX
 8
Poly
 10
211
 20
337
 0
SEQEND
 8
Poly
 0
POLYLINE
 8
Poly
 66
 1
 0
VERTEX
 8
Poly
 10
205
 20
340
 0
VERTEX
 8
Poly
 10
208
 20
340
 0
VERTEX
 8
Poly
 10
208
 20
337
 0
VERTEX
 8
Poly
 10
211
 20
337
 0
VERTEX
 8
Poly
 10
211
 20
338
 0
SEQEND
 8
Poly
 0
POLYLINE
 8
Poly
 66
 1
 0
VERTEX
 8
Poly
 10
327
 20
342
 0
VERTEX
 8
Poly
 10
327
 20
344
 0
VERTEX
 8
Poly
 10
329
 20
344
 0
SEQEND
 8
Poly
 0
LINE
 8
Line
 10
329
 20
342
 11
327
 21
342
 0
LINE
 8
Line
 10
329
 20
344
 11
329
 21
342
 0
POLYLINE
 8
Poly
 66
 1
 0
VERTEX
 8
Poly
 10
310
 20
341
 0
VERTEX
 8
Poly
 10
310
 20
343
 0
VERTEX
 8
Poly
 10
313
 20
343
 0
SEQEND
 8
Poly
 0
LINE
 8
Line
 10
313
 20
341
 11
310
 21
341
 0
LINE
 8
Line
 10
313
 20
343
 11
313
 21
341
 0
POLYLINE
 8
Poly
 66
 1
 0
VERTEX
 8
Poly
 10
315
 20
338
 0
VERTEX
 8
Poly
 10
315
 20
342
 0
VERTEX
 8
Poly
 10
317
 20
342
 0
SEQEND
 8
Poly
 0
LINE
 8
Line
 10
317
 20
338
 11
315
 21
338
 0
LINE
 8
Line
 10
317
 20
342
 11
317
 21
338
 0
POLYLINE
 8
Poly
 66
 1
 0
VERTEX
 8
Poly
 10
354
 20
342
 0
VERTEX
 8
Poly
 10
352
 20
342
 0
VERTEX
 8
Poly
 10
346
 20
339
 0
VERTEX
 8
Poly
 10
344
 20
339
 0
SEQEND
 8
Poly
 0
LINE
 8
Line
 10
344
 20
339
 11
345
 21
335
 0
LINE
 8
Line
 10
354
 20
342
 11
354
 21
340
 0
POLYLINE
 8
Poly
 66
 1
 0
VERTEX
 8
Poly
 10
345
 20
335
 0
VERTEX
 8
Poly
 10
350
 20
335
 0
VERTEX
 8
Poly
 10
350
 20
332
 0
SEQEND
 8
Poly
 0
LINE
 8
Line
 10
352
 20
332
 11
354
 21
340
 0
LINE
 8
Line
 10
350
 20
332
 11
352
 21
332
 0
LINE
 8
Line
 10
177
 20
325
 11
179
 21
325
 0
LINE
 8
Line
 10
179
 20
325
 11
179
 21
335
 0
POLYLINE
 8
Poly
 66
 1
 0
VERTEX
 8
Poly
 10
200
 20
319
 0
VERTEX
 8
Poly
 10
198
 20
319
 0
VERTEX
 8
Poly
 10
198
 20
317
 0
VERTEX
 8
Poly
 10
200
 20
317
 0
VERTEX
 8
Poly
 10
201
 20
316
 0
VERTEX
 8
Poly
 10
202
 20
283
 0
VERTEX
 8
Poly
 10
344
 20
280
 0
VERTEX
 8
Poly
 10
344
 20
279
 0
VERTEX
 8
Poly
 10
346
 20
279
 0
SEQEND
 8
Poly
 0
POLYLINE
 8
Poly
 66
 1
 0
VERTEX
 8
Poly
 10
287
 20
192
 0
VERTEX
 8
Poly
 10
282
 20
195
 0
VERTEX
 8
Poly
 10
284
 20
201
 0
VERTEX
 8
Poly
 10
277
 20
200
 0
VERTEX
 8
Poly
 10
243
 20
228
 0
VERTEX
 8
Poly
 10
241
 20
228
 0
VERTEX
 8
Poly
 10
237
 20
231
 0
VERTEX
 8
Poly
 10
237
 20
234
 0
VERTEX
 8
Poly
 10
230
 20
234
 0
SEQEND
 8
Poly
 0
POLYLINE
 8
Poly
 66
 1
 0
VERTEX
 8
Poly
 10
388
 20
338
 0
VERTEX
 8
Poly
 10
388
 20
340
 0
VERTEX
 8
Poly
 10
390
 20
340
 0
SEQEND
 8
Poly
 0
LINE
 8
Line
 10
390
 20
338
 11
388
 21
338
 0
LINE
 8
Line
 10
390
 20
340
 11
390
 21
338
 0
POLYLINE
 8
Poly
 66
 1
 0
VERTEX
 8
Poly
 10
394
 20
338
 0
VERTEX
 8
Poly
 10
394
 20
340
 0
VERTEX
 8
Poly
 10
398
 20
340
 0
SEQEND
 8
Poly
 0
LINE
 8
Line
 10
398
 20
338
 11
394
 21
338
 0
LINE
 8
Line
 10
398
 20
340
 11
398
 21
338
 0
POLYLINE
 8
Poly
 66
 1
 0
VERTEX
 8
Poly
 10
400
 20
338
 0
VERTEX
 8
Poly
 10
400
 20
340
 0
VERTEX
 8
Poly
 10
400
 20
338
 0
SEQEND
 8
Poly
 0
POLYLINE
 8
Poly
 66
 1
 0
VERTEX
 8
Poly
 10
259
 20
337
 0
VERTEX
 8
Poly
 10
259
 20
339
 0
VERTEX
 8
Poly
 10
261
 20
339
 0
SEQEND
 8
Poly
 0
LINE
 8
Line
 10
261
 20
337
 11
259
 21
337
 0
LINE
 8
Line
 10
261
 20
339
 11
261
 21
337
 0
POLYLINE
 8
Poly
 66
 1
 0
VERTEX
 8
Poly
 10
379
 20
339
 0
VERTEX
 8
Poly
 10
379
 20
331
 0
VERTEX
 8
Poly
 10
382
 20
335
 0
VERTEX
 8
Poly
 10
380
 20
335
 0
VERTEX
 8
Poly
 10
379
 20
339
 0
SEQEND
 8
Poly
 0
POLYLINE
 8
Poly
 66
 1
 0
VERTEX
 8
Poly
 10
321
 20
336
 0
VERTEX
 8
Poly
 10
321
 20
338
 0
VERTEX
 8
Poly
 10
323
 20
338
 0
SEQEND
 8
Poly
 0
LINE
 8
Line
 10
323
 20
336
 11
321
 21
336
 0
LINE
 8
Line
 10
323
 20
338
 11
323
 21
336
 0
POLYLINE
 8
Poly
 66
 1
 0
VERTEX
 8
Poly
 10
342
 20
337
 0
VERTEX
 8
Poly
 10
332
 20
337
 0
VERTEX
 8
Poly
 10
331
 20
338
 0
VERTEX
 8
Poly
 10
331
 20
336
 0
SEQEND
 8
Poly
 0
LINE
 8
Line
 10
331
 20
336
 11
326
 21
336
 0
LINE
 8
Line
 10
342
 20
337
 11
342
 21
335
 0
POLYLINE
 8
Poly
 66
 1
 0
VERTEX
 8
Poly
 10
326
 20
336
 0
VERTEX
 8
Poly
 10
321
 20
333
 0
VERTEX
 8
Poly
 10
321
 20
331
 0
VERTEX
 8
Poly
 10
342
 20
335
 0
SEQEND
 8
Poly
 0
POLYLINE
 8
Poly
 66
 1
 0
VERTEX
 8
Poly
 10
354
 20
335
 0
VERTEX
 8
Poly
 10
354
 20
337
 0
VERTEX
 8
Poly
 10
359
 20
336
 0
SEQEND
 8
Poly
 0
LINE
 8
Line
 10
359
 20
334
 11
354
 21
335
 0
LINE
 8
Line
 10
359
 20
336
 11
359
 21
334
 0
POLYLINE
 8
Poly
 66
 1
 0
VERTEX
 8
Poly
 10
309
 20
330
 0
VERTEX
 8
Poly
 10
307
 20
335
 0
VERTEX
 8
Poly
 10
311
 20
335
 0
SEQEND
 8
Poly
 0
LINE
 8
Line
 10
311
 20
330
 11
309
 21
330
 0
LINE
 8
Line
 10
311
 20
335
 11
311
 21
330
 0
POLYLINE
 8
Poly
 66
 1
 0
VERTEX
 8
Poly
 10
363
 20
333
 0
VERTEX
 8
Poly
 10
369
 20
335
 0
VERTEX
 8
Poly
 10
371
 20
335
 0
SEQEND
 8
Poly
 0
POLYLINE
 8
Poly
 66
 1
 0
VERTEX
 8
Poly
 10
363
 20
333
 0
VERTEX
 8
Poly
 10
364
 20
328
 0
VERTEX
 8
Poly
 10
367
 20
325
 0
VERTEX
 8
Poly
 10
373
 20
325
 0
SEQEND
 8
Poly
 0
LINE
 8
Line
 10
371
 20
335
 11
373
 21
330
 0
LINE
 8
Line
 10
373
 20
325
 11
373
 21
327
 0
POLYLINE
 8
Poly
 66
 1
 0
VERTEX
 8
Poly
 10
373
 20
330
 0
VERTEX
 8
Poly
 10
367
 20
330
 0
VERTEX
 8
Poly
 10
367
 20
328
 0
VERTEX
 8
Poly
 10
369
 20
327
 0
VERTEX
 8
Poly
 10
373
 20
327
 0
SEQEND
 8
Poly
 0
POLYLINE
 8
Poly
 66
 1
 0
VERTEX
 8
Poly
 10
246
 20
332
 0
VERTEX
 8
Poly
 10
246
 20
334
 0
VERTEX
 8
Poly
 10
249
 20
334
 0
SEQEND
 8
Poly
 0
LINE
 8
Line
 10
249
 20
332
 11
246
 21
332
 0
LINE
 8
Line
 10
249
 20
334
 11
249
 21
332
 0
POLYLINE
 8
Poly
 66
 1
 0
VERTEX
 8
Poly
 10
276
 20
332
 0
VERTEX
 8
Poly
 10
276
 20
334
 0
VERTEX
 8
Poly
 10
278
 20
334
 0
SEQEND
 8
Poly
 0
LINE
 8
Line
 10
278
 20
332
 11
276
 21
332
 0
LINE
 8
Line
 10
278
 20
334
 11
278
 21
332
 0
POLYLINE
 8
Poly
 66
 1
 0
VERTEX
 8
Poly
 10
143
 20
331
 0
VERTEX
 8
Poly
 10
143
 20
333
 0
VERTEX
 8
Poly
 10
145
 20
333
 0
SEQEND
 8
Poly
 0
LINE
 8
Line
 10
145
 20
331
 11
143
 21
331
 0
LINE
 8
Line
 10
145
 20
333
 11
145
 21
331
 0
POLYLINE
 8
Poly
 66
 1
 0
VERTEX
 8
Poly
 10
238
 20
331
 0
VERTEX
 8
Poly
 10
238
 20
333
 0
VERTEX
 8
Poly
 10
240
 20
333
 0
SEQEND
 8
Poly
 0
LINE
 8
Line
 10
240
 20
331
 11
238
 21
331
 0
LINE
 8
Line
 10
240
 20
333
 11
240
 21
331
 0
POLYLINE
 8
Poly
 66
 1
 0
VERTEX
 8
Poly
 10
252
 20
330
 0
VERTEX
 8
Poly
 10
254
 20
333
 0
VERTEX
 8
Poly
 10
256
 20
333
 0
SEQEND
 8
Poly
 0
POLYLINE
 8
Poly
 66
 1
 0
VERTEX
 8
Poly
 10
253
 20
329
 0
VERTEX
 8
Poly
 10
252
 20
330
 0
VERTEX
 8
Poly
 10
251
 20
329
 0
SEQEND
 8
Poly
 0
LINE
 8
Line
 10
256
 20
333
 11
256
 21
330
 0
POLYLINE
 8
Poly
 66
 1
 0
VERTEX
 8
Poly
 10
256
 20
330
 0
VERTEX
 8
Poly
 10
253
 20
329
 0
VERTEX
 8
Poly
 10
252
 20
328
 0
VERTEX
 8
Poly
 10
251
 20
329
 0
SEQEND
 8
Poly
 0
LINE
 8
Line
 10
251
 20
329
 11
246
 21
330
 0
LINE
 8
Line
 10
252
 20
328
 11
248
 21
326
 0
LINE
 8
Line
 10
246
 20
330
 11
246
 21
328
 0
LINE
 8
Line
 10
244
 20
325
 11
248
 21
326
 0
LINE
 8
Line
 10
246
 20
328
 11
244
 21
325
 0
POLYLINE
 8
Poly
 66
 1
 0
VERTEX
 8
Poly
 10
346
 20
330
 0
VERTEX
 8
Poly
 10
346
 20
332
 0
VERTEX
 8
Poly
 10
348
 20
332
 0
SEQEND
 8
Poly
 0
LINE
 8
Line
 10
348
 20
330
 11
346
 21
330
 0
LINE
 8
Line
 10
348
 20
332
 11
348
 21
330
 0
POLYLINE
 8
Poly
 66
 1
 0
VERTEX
 8
Poly
 10
408
 20
328
 0
VERTEX
 8
Poly
 10
408
 20
330
 0
VERTEX
 8
Poly
 10
410
 20
330
 0
SEQEND
 8
Poly
 0
LINE
 8
Line
 10
410
 20
328
 11
408
 21
328
 0
LINE
 8
Line
 10
410
 20
330
 11
410
 21
328
 0
POLYLINE
 8
Poly
 66
 1
 0
VERTEX
 8
Poly
 10
398
 20
329
 0
VERTEX
 8
Poly
 10
397
 20
328
 0
VERTEX
 8
Poly
 10
395
 20
327
 0
VERTEX
 8
Poly
 10
395
 20
325
 0
SEQEND
 8
Poly
 0
POLYLINE
 8
Poly
 66
 1
 0
VERTEX
 8
Poly
 10
398
 20
329
 0
VERTEX
 8
Poly
 10
402
 20
329
 0
VERTEX
 8
Poly
 10
403
 20
327
 0
VERTEX
 8
Poly
 10
401
 20
322
 0
VERTEX
 8
Poly
 10
395
 20
325
 0
SEQEND
 8
Poly
 0
POLYLINE
 8
Poly
 66
 1
 0
VERTEX
 8
Poly
 10
306
 20
326
 0
VERTEX
 8
Poly
 10
306
 20
328
 0
VERTEX
 8
Poly
 10
308
 20
328
 0
SEQEND
 8
Poly
 0
LINE
 8
Line
 10
308
 20
326
 11
306
 21
326
 0
LINE
 8
Line
 10
308
 20
328
 11
308
 21
326
 0
POLYLINE
 8
Poly
 66
 1
 0
VERTEX
 8
Poly
 10
355
 20
326
 0
VERTEX
 8
Poly
 10
355
 20
328
 0
VERTEX
 8
Poly
 10
357
 20
328
 0
SEQEND
 8
Poly
 0
LINE
 8
Line
 10
357
 20
326
 11
355
 21
326
 0
LINE
 8
Line
 10
357
 20
328
 11
357
 21
326
 0
POLYLINE
 8
Poly
 66
 1
 0
VERTEX
 8
Poly
 10
380
 20
321
 0
VERTEX
 8
Poly
 10
376
 20
320
 0
VERTEX
 8
Poly
 10
375
 20
326
 0
VERTEX
 8
Poly
 10
377
 20
326
 0
SEQEND
 8
Poly
 0
LINE
 8
Line
 10
380
 20
323
 11
377
 21
326
 0
LINE
 8
Line
 10
380
 20
321
 11
380
 21
323
 0
POLYLINE
 8
Poly
 66
 1
 0
VERTEX
 8
Poly
 10
339
 20
323
 0
VERTEX
 8
Poly
 10
339
 20
325
 0
VERTEX
 8
Poly
 10
342
 20
325
 0
SEQEND
 8
Poly
 0
LINE
 8
Line
 10
342
 20
323
 11
339
 21
323
 0
LINE
 8
Line
 10
342
 20
325
 11
342
 21
323
 0
POLYLINE
 8
Poly
 66
 1
 0
VERTEX
 8
Poly
 10
409
 20
323
 0
VERTEX
 8
Poly
 10
409
 20
325
 0
VERTEX
 8
Poly
 10
412
 20
325
 0
SEQEND
 8
Poly
 0
LINE
 8
Line
 10
412
 20
323
 11
409
 21
323
 0
LINE
 8
Line
 10
412
 20
325
 11
412
 21
323
 0
POLYLINE
 8
Poly
 66
 1
 0
VERTEX
 8
Poly
 10
387
 20
319
 0
VERTEX
 8
Poly
 10
385
 20
322
 0
VERTEX
 8
Poly
 10
385
 20
324
 0
VERTEX
 8
Poly
 10
389
 20
323
 0
SEQEND
 8
Poly
 0
LINE
 8
Line
 10
389
 20
319
 11
389
 21
323
 0
LINE
 8
Line
 10
387
 20
319
 11
389
 21
319
 0
POLYLINE
 8
Poly
 66
 1
 0
VERTEX
 8
Poly
 10
356
 20
321
 0
VERTEX
 8
Poly
 10
356
 20
323
 0
VERTEX
 8
Poly
 10
358
 20
323
 0
SEQEND
 8
Poly
 0
LINE
 8
Line
 10
358
 20
321
 11
356
 21
321
 0
LINE
 8
Line
 10
358
 20
323
 11
358
 21
321
 0
POLYLINE
 8
Poly
 66
 1
 0
VERTEX
 8
Poly
 10
207
 20
320
 0
VERTEX
 8
Poly
 10
207
 20
321
 0
VERTEX
 8
Poly
 10
208
 20
319
 0
VERTEX
 8
Poly
 10
207
 20
320
 0
VERTEX
 8
Poly
 10
208
 20
319
 0
SEQEND
 8
Poly
 0
POLYLINE
 8
Poly
 66
 1
 0
VERTEX
 8
Poly
 10
360
 20
319
 0
VERTEX
 8
Poly
 10
360
 20
321
 0
VERTEX
 8
Poly
 10
363
 20
321
 0
SEQEND
 8
Poly
 0
LINE
 8
Line
 10
363
 20
319
 11
360
 21
319
 0
LINE
 8
Line
 10
363
 20
321
 11
363
 21
319
 0
POLYLINE
 8
Poly
 66
 1
 0
VERTEX
 8
Poly
 10
219
 20
310
 0
VERTEX
 8
Poly
 10
217
 20
310
 0
VERTEX
 8
Poly
 10
215
 20
319
 0
VERTEX
 8
Poly
 10
215
 20
312
 0
SEQEND
 8
Poly
 0
LINE
 8
Line
 10
215
 20
312
 11
212
 21
309
 0
POLYLINE
 8
Poly
 66
 1
 0
VERTEX
 8
Poly
 10
219
 20
310
 0
VERTEX
 8
Poly
 10
221
 20
313
 0
VERTEX
 8
Poly
 10
223
 20
310
 0
SEQEND
 8
Poly
 0
POLYLINE
 8
Poly
 66
 1
 0
VERTEX
 8
Poly
 10
211
 20
309
 0
VERTEX
 8
Poly
 10
212
 20
309
 0
VERTEX
 8
Poly
 10
216
 20
300
 0
VERTEX
 8
Poly
 10
218
 20
301
 0
SEQEND
 8
Poly
 0
POLYLINE
 8
Poly
 66
 1
 0
VERTEX
 8
Poly
 10
212
 20
309
 0
VERTEX
 8
Poly
 10
205
 20
316
 0
VERTEX
 8
Poly
 10
204
 20
310
 0
SEQEND
 8
Poly
 0
POLYLINE
 8
Poly
 66
 1
 0
VERTEX
 8
Poly
 10
223
 20
310
 0
VERTEX
 8
Poly
 10
229
 20
311
 0
VERTEX
 8
Poly
 10
230
 20
310
 0
VERTEX
 8
Poly
 10
230
 20
308
 0
SEQEND
 8
Poly
 0
POLYLINE
 8
Poly
 66
 1
 0
VERTEX
 8
Poly
 10
211
 20
309
 0
VERTEX
 8
Poly
 10
209
 20
304
 0
VERTEX
 8
Poly
 10
207
 20
305
 0
SEQEND
 8
Poly
 0
LINE
 8
Line
 10
218
 20
301
 11
218
 21
307
 0
LINE
 8
Line
 10
204
 20
310
 11
206
 21
310
 0
LINE
 8
Line
 10
230
 20
308
 11
232
 21
308
 0
POLYLINE
 8
Poly
 66
 1
 0
VERTEX
 8
Poly
 10
207
 20
305
 0
VERTEX
 8
Poly
 10
203
 20
300
 0
VERTEX
 8
Poly
 10
203
 20
306
 0
VERTEX
 8
Poly
 10
204
 20
307
 0
VERTEX
 8
Poly
 10
206
 20
307
 0
SEQEND
 8
Poly
 0
LINE
 8
Line
 10
218
 20
307
 11
220
 21
307
 0
LINE
 8
Line
 10
206
 20
310
 11
206
 21
307
 0
POLYLINE
 8
Poly
 66
 1
 0
VERTEX
 8
Poly
 10
232
 20
308
 0
VERTEX
 8
Poly
 10
239
 20
310
 0
VERTEX
 8
Poly
 10
240
 20
306
 0
SEQEND
 8
Poly
 0
POLYLINE
 8
Poly
 66
 1
 0
VERTEX
 8
Poly
 10
220
 20
307
 0
VERTEX
 8
Poly
 10
220
 20
304
 0
VERTEX
 8
Poly
 10
221
 20
303
 0
VERTEX
 8
Poly
 10
223
 20
303
 0
SEQEND
 8
Poly
 0
LINE
 8
Line
 10
240
 20
306
 11
237
 21
305
 0
LINE
 8
Line
 10
223
 20
303
 11
223
 21
301
 0
LINE
 8
Line
 10
240
 20
306
 11
242
 21
308
 0
POLYLINE
 8
Poly
 66
 1
 0
VERTEX
 8
Poly
 10
240
 20
307
 0
VERTEX
 8
Poly
 10
243
 20
307
 0
VERTEX
 8
Poly
 10
242
 20
308
 0
SEQEND
 8
Poly
 0
LINE
 8
Line
 10
237
 20
306
 11
237
 21
304
 0
LINE
 8
Line
 10
237
 20
305
 11
235
 21
306
 0
POLYLINE
 8
Poly
 66
 1
 0
VERTEX
 8
Poly
 10
223
 20
301
 0
VERTEX
 8
Poly
 10
220
 20
298
 0
VERTEX
 8
Poly
 10
221
 20
298
 0
SEQEND
 8
Poly
 0
LINE
 8
Line
 10
242
 20
308
 11
243
 21
307
 0
POLYLINE
 8
Poly
 66
 1
 0
VERTEX
 8
Poly
 10
248
 20
307
 0
VERTEX
 8
Poly
 10
237
 20
304
 0
VERTEX
 8
Poly
 10
235
 20
304
 0
VERTEX
 8
Poly
 10
235
 20
306
 0
SEQEND
 8
Poly
 0
LINE
 8
Line
 10
221
 20
298
 11
221
 21
294
 0
POLYLINE
 8
Poly
 66
 1
 0
VERTEX
 8
Poly
 10
248
 20
307
 0
VERTEX
 8
Poly
 10
255
 20
311
 0
VERTEX
 8
Poly
 10
259
 20
310
 0
SEQEND
 8
Poly
 0
LINE
 8
Line
 10
221
 20
294
 11
216
 21
294
 0
LINE
 8
Line
 10
259
 20
310
 11
260
 21
309
 0
LINE
 8
Line
 10
216
 20
294
 11
216
 21
293
 0
POLYLINE
 8
Poly
 66
 1
 0
VERTEX
 8
Poly
 10
252
 20
308
 0
VERTEX
 8
Poly
 10
260
 20
309
 0
VERTEX
 8
Poly
 10
264
 20
309
 0
VERTEX
 8
Poly
 10
268
 20
306
 0
VERTEX
 8
Poly
 10
265
 20
301
 0
SEQEND
 8
Poly
 0
LINE
 8
Line
 10
284
 20
301
 11
286
 21
301
 0
POLYLINE
 8
Poly
 66
 1
 0
VERTEX
 8
Poly
 10
215
 20
293
 0
VERTEX
 8
Poly
 10
216
 20
293
 0
VERTEX
 8
Poly
 10
221
 20
292
 0
SEQEND
 8
Poly
 0
LINE
 8
Line
 10
258
 20
299
 11
257
 21
293
 0
POLYLINE
 8
Poly
 66
 1
 0
VERTEX
 8
Poly
 10
265
 20
301
 0
VERTEX
 8
Poly
 10
265
 20
305
 0
VERTEX
 8
Poly
 10
263
 20
307
 0
VERTEX
 8
Poly
 10
256
 20
303
 0
SEQEND
 8
Poly
 0
LINE
 8
Line
 10
286
 20
301
 11
280
 21
310
 0
POLYLINE
 8
Poly
 66
 1
 0
VERTEX
 8
Poly
 10
221
 20
292
 0
VERTEX
 8
Poly
 10
225
 20
290
 0
VERTEX
 8
Poly
 10
226
 20
292
 0
SEQEND
 8
Poly
 0
POLYLINE
 8
Poly
 66
 1
 0
VERTEX
 8
Poly
 10
257
 20
293
 0
VERTEX
 8
Poly
 10
263
 20
295
 0
VERTEX
 8
Poly
 10
263
 20
294
 0
SEQEND
 8
Poly
 0
LINE
 8
Line
 10
270
 20
298
 11
270
 21
296
 0
LINE
 8
Line
 10
280
 20
310
 11
290
 21
309
 0
LINE
 8
Line
 10
226
 20
292
 11
232
 21
292
 0
LINE
 8
Line
 10
265
 20
294
 11
263
 21
294
 0
LINE
 8
Line
 10
270
 20
296
 11
265
 21
294
 0
LINE
 8
Line
 10
290
 20
309
 11
290
 21
305
 0
POLYLINE
 8
Poly
 66
 1
 0
VERTEX
 8
Poly
 10
232
 20
292
 0
VERTEX
 8
Poly
 10
236
 20
290
 0
VERTEX
 8
Poly
 10
236
 20
292
 0
VERTEX
 8
Poly
 10
235
 20
294
 0
VERTEX
 8
Poly
 10
232
 20
294
 0
SEQEND
 8
Poly
 0
LINE
 8
Line
 10
290
 20
305
 11
292
 21
305
 0
LINE
 8
Line
 10
232
 20
294
 11
232
 21
297
 0
LINE
 8
Line
 10
292
 20
305
 11
294
 21
308
 0
LINE
 8
Line
 10
232
 20
297
 11
247
 21
296
 0
POLYLINE
 8
Poly
 66
 1
 0
VERTEX
 8
Poly
 10
295
 20
309
 0
VERTEX
 8
Poly
 10
294
 20
308
 0
VERTEX
 8
Poly
 10
296
 20
307
 0
SEQEND
 8
Poly
 0
POLYLINE
 8
Poly
 66
 1
 0
VERTEX
 8
Poly
 10
247
 20
296
 0
VERTEX
 8
Poly
 10
237
 20
297
 0
VERTEX
 8
Poly
 10
237
 20
295
 0
VERTEX
 8
Poly
 10
240
 20
293
 0
VERTEX
 8
Poly
 10
246
 20
293
 0
SEQEND
 8
Poly
 0
POLYLINE
 8
Poly
 66
 1
 0
VERTEX
 8
Poly
 10
297
 20
306
 0
VERTEX
 8
Poly
 10
296
 20
307
 0
VERTEX
 8
Poly
 10
309
 20
311
 0
SEQEND
 8
Poly
 0
LINE
 8
Line
 10
246
 20
293
 11
251
 21
291
 0
POLYLINE
 8
Poly
 66
 1
 0
VERTEX
 8
Poly
 10
297
 20
304
 0
VERTEX
 8
Poly
 10
297
 20
306
 0
VERTEX
 8
Poly
 10
306
 20
308
 0
VERTEX
 8
Poly
 10
308
 20
306
 0
VERTEX
 8
Poly
 10
308
 20
304
 0
SEQEND
 8
Poly
 0
POLYLINE
 8
Poly
 66
 1
 0
VERTEX
 8
Poly
 10
308
 20
312
 0
VERTEX
 8
Poly
 10
309
 20
311
 0
VERTEX
 8
Poly
 10
313
 20
311
 0
VERTEX
 8
Poly
 10
315
 20
310
 0
SEQEND
 8
Poly
 0
LINE
 8
Line
 10
251
 20
291
 11
254
 21
293
 0
LINE
 8
Line
 10
297
 20
304
 11
299
 21
302
 0
POLYLINE
 8
Poly
 66
 1
 0
VERTEX
 8
Poly
 10
308
 20
304
 0
VERTEX
 8
Poly
 10
302
 20
305
 0
VERTEX
 8
Poly
 10
301
 20
304
 0
VERTEX
 8
Poly
 10
301
 20
302
 0
SEQEND
 8
Poly
 0
POLYLINE
 8
Poly
 66
 1
 0
VERTEX
 8
Poly
 10
315
 20
310
 0
VERTEX
 8
Poly
 10
328
 20
310
 0
VERTEX
 8
Poly
 10
329
 20
307
 0
SEQEND
 8
Poly
 0
LINE
 8
Line
 10
299
 20
302
 11
301
 21
302
 0
LINE
 8
Line
 10
329
 20
307
 11
331
 21
307
 0
LINE
 8
Line
 10
288
 20
293
 11
288
 21
294
 0
LINE
 8
Line
 10
331
 20
307
 11
331
 21
311
 0
LINE
 8
Line
 10
288
 20
294
 11
299
 21
290
 0
POLYLINE
 8
Poly
 66
 1
 0
VERTEX
 8
Poly
 10
331
 20
311
 0
VERTEX
 8
Poly
 10
335
 20
308
 0
VERTEX
 8
Poly
 10
337
 20
309
 0
VERTEX
 8
Poly
 10
338
 20
310
 0
VERTEX
 8
Poly
 10
351
 20
311
 0
VERTEX
 8
Poly
 10
350
 20
306
 0
SEQEND
 8
Poly
 0
LINE
 8
Line
 10
299
 20
290
 11
299
 21
292
 0
LINE
 8
Line
 10
350
 20
306
 11
355
 21
309
 0
LINE
 8
Line
 10
366
 20
311
 11
365
 21
309
 0
LINE
 8
Line
 10
299
 20
292
 11
304
 21
293
 0
LINE
 8
Line
 10
365
 20
309
 11
365
 21
306
 0
POLYLINE
 8
Poly
 66
 1
 0
VERTEX
 8
Poly
 10
299
 20
300
 0
VERTEX
 8
Poly
 10
301
 20
300
 0
VERTEX
 8
Poly
 10
304
 20
293
 0
VERTEX
 8
Poly
 10
306
 20
298
 0
VERTEX
 8
Poly
 10
305
 20
302
 0
SEQEND
 8
Poly
 0
LINE
 8
Line
 10
365
 20
306
 11
362
 21
305
 0
LINE
 8
Line
 10
301
 20
300
 11
299
 21
300
 0
POLYLINE
 8
Poly
 66
 1
 0
VERTEX
 8
Poly
 10
362
 20
305
 0
VERTEX
 8
Poly
 10
360
 20
298
 0
VERTEX
 8
Poly
 10
359
 20
300
 0
SEQEND
 8
Poly
 0
LINE
 8
Line
 10
305
 20
302
 11
312
 21
302
 0
LINE
 8
Line
 10
359
 20
300
 11
355
 21
300
 0
POLYLINE
 8
Poly
 66
 1
 0
VERTEX
 8
Poly
 10
312
 20
302
 0
VERTEX
 8
Poly
 10
318
 20
299
 0
VERTEX
 8
Poly
 10
320
 20
299
 0
SEQEND
 8
Poly
 0
POLYLINE
 8
Poly
 66
 1
 0
VERTEX
 8
Poly
 10
355
 20
300
 0
VERTEX
 8
Poly
 10
352
 20
296
 0
VERTEX
 8
Poly
 10
352
 20
297
 0
SEQEND
 8
Poly
 0
LINE
 8
Line
 10
320
 20
299
 11
317
 21
307
 0
POLYLINE
 8
Poly
 66
 1
 0
VERTEX
 8
Poly
 10
352
 20
297
 0
VERTEX
 8
Poly
 10
347
 20
299
 0
VERTEX
 8
Poly
 10
351
 20
299
 0
VERTEX
 8
Poly
 10
352
 20
300
 0
VERTEX
 8
Poly
 10
352
 20
302
 0
SEQEND
 8
Poly
 0
LINE
 8
Line
 10
317
 20
307
 11
327
 21
301
 0
LINE
 8
Line
 10
352
 20
302
 11
341
 21
303
 0
LINE
 8
Line
 10
327
 20
301
 11
327
 21
295
 0
POLYLINE
 8
Poly
 66
 1
 0
VERTEX
 8
Poly
 10
341
 20
303
 0
VERTEX
 8
Poly
 10
346
 20
297
 0
VERTEX
 8
Poly
 10
332
 20
298
 0
VERTEX
 8
Poly
 10
333
 20
300
 0
SEQEND
 8
Poly
 0
LINE
 8
Line
 10
327
 20
295
 11
329
 21
295
 0
LINE
 8
Line
 10
333
 20
300
 11
333
 21
302
 0
POLYLINE
 8
Poly
 66
 1
 0
VERTEX
 8
Poly
 10
329
 20
295
 0
VERTEX
 8
Poly
 10
329
 20
301
 0
VERTEX
 8
Poly
 10
330
 20
302
 0
VERTEX
 8
Poly
 10
333
 20
302
 0
SEQEND
 8
Poly
 0
POLYLINE
 8
Poly
 66
 1
 0
VERTEX
 8
Poly
 10
237
 20
315
 0
VERTEX
 8
Poly
 10
236
 20
312
 0
VERTEX
 8
Poly
 10
241
 20
312
 0
VERTEX
 8
Poly
 10
237
 20
315
 0
SEQEND
 8
Poly
 0
POLYLINE
 8
Poly
 66
 1
 0
VERTEX
 8
Poly
 10
272
 20
314
 0
VERTEX
 8
Poly
 10
274
 20
315
 0
VERTEX
 8
Poly
 10
272
 20
314
 0
SEQEND
 8
Poly
 0
POLYLINE
 8
Poly
 66
 1
 0
VERTEX
 8
Poly
 10
333
 20
313
 0
VERTEX
 8
Poly
 10
331
 20
315
 0
VERTEX
 8
Poly
 10
334
 20
314
 0
VERTEX
 8
Poly
 10
333
 20
313
 0
VERTEX
 8
Poly
 10
334
 20
314
 0
SEQEND
 8
Poly
 0
POLYLINE
 8
Poly
 66
 1
 0
VERTEX
 8
Poly
 10
246
 20
314
 0
VERTEX
 8
Poly
 10
246
 20
312
 0
VERTEX
 8
Poly
 10
251
 20
314
 0
VERTEX
 8
Poly
 10
246
 20
314
 0
SEQEND
 8
Poly
 0
POLYLINE
 8
Poly
 66
 1
 0
VERTEX
 8
Poly
 10
290
 20
314
 0
VERTEX
 8
Poly
 10
291
 20
311
 0
VERTEX
 8
Poly
 10
293
 20
314
 0
VERTEX
 8
Poly
 10
290
 20
314
 0
SEQEND
 8
Poly
 0
POLYLINE
 8
Poly
 66
 1
 0
VERTEX
 8
Poly
 10
304
 20
313
 0
VERTEX
 8
Poly
 10
302
 20
314
 0
VERTEX
 8
Poly
 10
304
 20
314
 0
VERTEX
 8
Poly
 10
304
 20
313
 0
VERTEX
 8
Poly
 10
305
 20
313
 0
SEQEND
 8
Poly
 0
POLYLINE
 8
Poly
 66
 1
 0
VERTEX
 8
Poly
 10
345
 20
307
 0
VERTEX
 8
Poly
 10
345
 20
309
 0
VERTEX
 8
Poly
 10
347
 20
309
 0
SEQEND
 8
Poly
 0
LINE
 8
Line
 10
347
 20
307
 11
345
 21
307
 0
LINE
 8
Line
 10
347
 20
309
 11
347
 21
307
 0
POLYLINE
 8
Poly
 66
 1
 0
VERTEX
 8
Poly
 10
381
 20
306
 0
VERTEX
 8
Poly
 10
381
 20
308
 0
VERTEX
 8
Poly
 10
383
 20
308
 0
SEQEND
 8
Poly
 0
LINE
 8
Line
 10
383
 20
306
 11
381
 21
306
 0
LINE
 8
Line
 10
383
 20
308
 11
383
 21
306
 0
POLYLINE
 8
Poly
 66
 1
 0
VERTEX
 8
Poly
 10
225
 20
304
 0
VERTEX
 8
Poly
 10
225
 20
306
 0
VERTEX
 8
Poly
 10
228
 20
306
 0
SEQEND
 8
Poly
 0
LINE
 8
Line
 10
228
 20
304
 11
225
 21
304
 0
LINE
 8
Line
 10
228
 20
306
 11
228
 21
304
 0
POLYLINE
 8
Poly
 66
 1
 0
VERTEX
 8
Poly
 10
271
 20
303
 0
VERTEX
 8
Poly
 10
271
 20
305
 0
VERTEX
 8
Poly
 10
273
 20
305
 0
SEQEND
 8
Poly
 0
LINE
 8
Line
 10
273
 20
303
 11
271
 21
303
 0
LINE
 8
Line
 10
273
 20
305
 11
273
 21
303
 0
POLYLINE
 8
Poly
 66
 1
 0
VERTEX
 8
Poly
 10
326
 20
303
 0
VERTEX
 8
Poly
 10
326
 20
305
 0
VERTEX
 8
Poly
 10
328
 20
305
 0
SEQEND
 8
Poly
 0
LINE
 8
Line
 10
328
 20
303
 11
326
 21
303
 0
LINE
 8
Line
 10
328
 20
305
 11
328
 21
303
 0
POLYLINE
 8
Poly
 66
 1
 0
VERTEX
 8
Poly
 10
337
 20
302
 0
VERTEX
 8
Poly
 10
337
 20
304
 0
VERTEX
 8
Poly
 10
339
 20
304
 0
SEQEND
 8
Poly
 0
LINE
 8
Line
 10
339
 20
302
 11
337
 21
302
 0
LINE
 8
Line
 10
339
 20
304
 11
339
 21
302
 0
LINE
 8
Line
 10
292
 20
303
 11
292
 21
299
 0
LINE
 8
Line
 10
292
 20
303
 11
294
 21
303
 0
LINE
 8
Line
 10
274
 20
298
 11
274
 21
296
 0
POLYLINE
 8
Poly
 66
 1
 0
VERTEX
 8
Poly
 10
294
 20
303
 0
VERTEX
 8
Poly
 10
295
 20
301
 0
VERTEX
 8
Poly
 10
295
 20
296
 0
VERTEX
 8
Poly
 10
274
 20
296
 0
SEQEND
 8
Poly
 0
POLYLINE
 8
Poly
 66
 1
 0
VERTEX
 8
Poly
 10
208
 20
301
 0
VERTEX
 8
Poly
 10
209
 20
302
 0
VERTEX
 8
Poly
 10
208
 20
301
 0
VERTEX
 8
Poly
 10
209
 20
299
 0
SEQEND
 8
Poly
 0
POLYLINE
 8
Poly
 66
 1
 0
VERTEX
 8
Poly
 10
249
 20
300
 0
VERTEX
 8
Poly
 10
249
 20
302
 0
VERTEX
 8
Poly
 10
251
 20
302
 0
SEQEND
 8
Poly
 0
LINE
 8
Line
 10
251
 20
300
 11
249
 21
300
 0
LINE
 8
Line
 10
251
 20
302
 11
251
 21
300
 0
POLYLINE
 8
Poly
 66
 1
 0
VERTEX
 8
Poly
 10
279
 20
300
 0
VERTEX
 8
Poly
 10
279
 20
302
 0
VERTEX
 8
Poly
 10
281
 20
302
 0
SEQEND
 8
Poly
 0
LINE
 8
Line
 10
281
 20
300
 11
279
 21
300
 0
LINE
 8
Line
 10
281
 20
302
 11
281
 21
300
 0
POLYLINE
 8
Poly
 66
 1
 0
VERTEX
 8
Poly
 10
225
 20
296
 0
VERTEX
 8
Poly
 10
225
 20
298
 0
VERTEX
 8
Poly
 10
230
 20
298
 0
SEQEND
 8
Poly
 0
LINE
 8
Line
 10
230
 20
296
 11
225
 21
296
 0
LINE
 8
Line
 10
230
 20
298
 11
230
 21
296
 0
POLYLINE
 8
Poly
 66
 1
 0
VERTEX
 8
Poly
 10
250
 20
296
 0
VERTEX
 8
Poly
 10
250
 20
298
 0
VERTEX
 8
Poly
 10
253
 20
298
 0
SEQEND
 8
Poly
 0
LINE
 8
Line
 10
253
 20
296
 11
250
 21
296
 0
LINE
 8
Line
 10
253
 20
298
 11
253
 21
296
 0
POLYLINE
 8
Poly
 66
 1
 0
VERTEX
 8
Poly
 10
153
 20
295
 0
VERTEX
 8
Poly
 10
153
 20
297
 0
VERTEX
 8
Poly
 10
155
 20
297
 0
SEQEND
 8
Poly
 0
LINE
 8
Line
 10
155
 20
295
 11
153
 21
295
 0
LINE
 8
Line
 10
155
 20
297
 11
155
 21
295
 0
POLYLINE
 8
Poly
 66
 1
 0
VERTEX
 8
Poly
 10
323
 20
296
 0
VERTEX
 8
Poly
 10
321
 20
297
 0
VERTEX
 8
Poly
 10
320
 20
291
 0
VERTEX
 8
Poly
 10
322
 20
290
 0
VERTEX
 8
Poly
 10
323
 20
291
 0
VERTEX
 8
Poly
 10
323
 20
296
 0
SEQEND
 8
Poly
 0
POLYLINE
 8
Poly
 66
 1
 0
VERTEX
 8
Poly
 10
393
 20
295
 0
VERTEX
 8
Poly
 10
393
 20
297
 0
VERTEX
 8
Poly
 10
398
 20
297
 0
SEQEND
 8
Poly
 0
LINE
 8
Line
 10
398
 20
295
 11
393
 21
295
 0
LINE
 8
Line
 10
398
 20
297
 11
398
 21
295
 0
POLYLINE
 8
Poly
 66
 1
 0
VERTEX
 8
Poly
 10
313
 20
296
 0
VERTEX
 8
Poly
 10
311
 20
292
 0
VERTEX
 8
Poly
 10
315
 20
296
 0
VERTEX
 8
Poly
 10
313
 20
296
 0
SEQEND
 8
Poly
 0
POLYLINE
 8
Poly
 66
 1
 0
VERTEX
 8
Poly
 10
333
 20
296
 0
VERTEX
 8
Poly
 10
332
 20
293
 0
VERTEX
 8
Poly
 10
336
 20
293
 0
VERTEX
 8
Poly
 10
333
 20
296
 0
SEQEND
 8
Poly
 0
POLYLINE
 8
Poly
 66
 1
 0
VERTEX
 8
Poly
 10
347
 20
295
 0
VERTEX
 8
Poly
 10
342
 20
293
 0
VERTEX
 8
Poly
 10
347
 20
292
 0
SEQEND
 8
Poly
 0
POLYLINE
 8
Poly
 66
 1
 0
VERTEX
 8
Poly
 10
347
 20
295
 0
VERTEX
 8
Poly
 10
350
 20
292
 0
VERTEX
 8
Poly
 10
347
 20
292
 0
SEQEND
 8
Poly
 0
POLYLINE
 8
Poly
 66
 1
 0
VERTEX
 8
Poly
 10
417
 20
291
 0
VERTEX
 8
Poly
 10
419
 20
295
 0
VERTEX
 8
Poly
 10
422
 20
295
 0
VERTEX
 8
Poly
 10
422
 20
292
 0
VERTEX
 8
Poly
 10
418
 20
289
 0
VERTEX
 8
Poly
 10
417
 20
291
 0
SEQEND
 8
Poly
 0
POLYLINE
 8
Poly
 66
 1
 0
VERTEX
 8
Poly
 10
271
 20
292
 0
VERTEX
 8
Poly
 10
271
 20
294
 0
VERTEX
 8
Poly
 10
273
 20
294
 0
SEQEND
 8
Poly
 0
LINE
 8
Line
 10
273
 20
292
 11
271
 21
292
 0
LINE
 8
Line
 10
273
 20
294
 11
273
 21
292
 0
POLYLINE
 8
Poly
 66
 1
 0
VERTEX
 8
Poly
 10
425
 20
293
 0
VERTEX
 8
Poly
 10
424
 20
292
 0
VERTEX
 8
Poly
 10
424
 20
289
 0
VERTEX
 8
Poly
 10
427
 20
289
 0
VERTEX
 8
Poly
 10
428
 20
290
 0
VERTEX
 8
Poly
 10
425
 20
293
 0
SEQEND
 8
Poly
 0
POLYLINE
 8
Poly
 66
 1
 0
VERTEX
 8
Poly
 10
377
 20
292
 0
VERTEX
 8
Poly
 10
380
 20
289
 0
VERTEX
 8
Poly
 10
377
 20
292
 0
SEQEND
 8
Poly
 0
POLYLINE
 8
Poly
 66
 1
 0
VERTEX
 8
Poly
 10
245
 20
290
 0
VERTEX
 8
Poly
 10
242
 20
290
 0
VERTEX
 8
Poly
 10
242
 20
291
 0
VERTEX
 8
Poly
 10
241
 20
290
 0
SEQEND
 8
Poly
 0
LINE
 8
Line
 10
244
 20
290
 11
244
 21
291
 0
LINE
 8
Line
 10
242
 20
290
 11
245
 21
290
 0
POLYLINE
 8
Poly
 66
 1
 0
VERTEX
 8
Poly
 10
152
 20
286
 0
VERTEX
 8
Poly
 10
152
 20
288
 0
VERTEX
 8
Poly
 10
154
 20
288
 0
SEQEND
 8
Poly
 0
LINE
 8
Line
 10
154
 20
286
 11
152
 21
286
 0
LINE
 8
Line
 10
154
 20
288
 11
154
 21
286
 0
POLYLINE
 8
Poly
 66
 1
 0
VERTEX
 8
Poly
 10
165
 20
286
 0
VERTEX
 8
Poly
 10
165
 20
288
 0
VERTEX
 8
Poly
 10
167
 20
288
 0
SEQEND
 8
Poly
 0
LINE
 8
Line
 10
167
 20
286
 11
165
 21
286
 0
LINE
 8
Line
 10
167
 20
288
 11
167
 21
286
 0
POLYLINE
 8
Poly
 66
 1
 0
VERTEX
 8
Poly
 10
285
 20
287
 0
VERTEX
 8
Poly
 10
205
 20
288
 0
VERTEX
 8
Poly
 10
204
 20
287
 0
VERTEX
 8
Poly
 10
204
 20
285
 0
SEQEND
 8
Poly
 0
POLYLINE
 8
Poly
 66
 1
 0
VERTEX
 8
Poly
 10
204
 20
285
 0
VERTEX
 8
Poly
 10
324
 20
283
 0
VERTEX
 8
Poly
 10
324
 20
285
 0
VERTEX
 8
Poly
 10
323
 20
287
 0
VERTEX
 8
Poly
 10
289
 20
287
 0
SEQEND
 8
Poly
 0
LINE
 8
Line
 10
285
 20
287
 11
285
 21
286
 0
LINE
 8
Line
 10
289
 20
286
 11
289
 21
287
 0
LINE
 8
Line
 10
285
 20
286
 11
289
 21
286
 0
POLYLINE
 8
Poly
 66
 1
 0
VERTEX
 8
Poly
 10
333
 20
285
 0
VERTEX
 8
Poly
 10
334
 20
287
 0
VERTEX
 8
Poly
 10
337
 20
283
 0
VERTEX
 8
Poly
 10
331
 20
283
 0
VERTEX
 8
Poly
 10
333
 20
285
 0
SEQEND
 8
Poly
 0
POLYLINE
 8
Poly
 66
 1
 0
VERTEX
 8
Poly
 10
341
 20
287
 0
VERTEX
 8
Poly
 10
341
 20
285
 0
VERTEX
 8
Poly
 10
343
 20
283
 0
VERTEX
 8
Poly
 10
450
 20
283
 0
SEQEND
 8
Poly
 0
LINE
 8
Line
 10
450
 20
286
 11
341
 21
287
 0
POLYLINE
 8
Poly
 66
 1
 0
VERTEX
 8
Poly
 10
242
 20
276
 0
VERTEX
 8
Poly
 10
242
 20
278
 0
VERTEX
 8
Poly
 10
244
 20
278
 0
SEQEND
 8
Poly
 0
LINE
 8
Line
 10
244
 20
276
 11
242
 21
276
 0
LINE
 8
Line
 10
244
 20
278
 11
244
 21
276
 0
POLYLINE
 8
Poly
 66
 1
 0
VERTEX
 8
Poly
 10
216
 20
274
 0
VERTEX
 8
Poly
 10
216
 20
276
 0
VERTEX
 8
Poly
 10
218
 20
276
 0
SEQEND
 8
Poly
 0
LINE
 8
Line
 10
218
 20
274
 11
216
 21
274
 0
LINE
 8
Line
 10
218
 20
276
 11
218
 21
274
 0
POLYLINE
 8
Poly
 66
 1
 0
VERTEX
 8
Poly
 10
306
 20
274
 0
VERTEX
 8
Poly
 10
306
 20
276
 0
VERTEX
 8
Poly
 10
308
 20
276
 0
SEQEND
 8
Poly
 0
LINE
 8
Line
 10
308
 20
274
 11
306
 21
274
 0
LINE
 8
Line
 10
308
 20
276
 11
308
 21
274
 0
POLYLINE
 8
Poly
 66
 1
 0
VERTEX
 8
Poly
 10
269
 20
272
 0
VERTEX
 8
Poly
 10
269
 20
274
 0
VERTEX
 8
Poly
 10
271
 20
274
 0
SEQEND
 8
Poly
 0
LINE
 8
Line
 10
271
 20
272
 11
269
 21
272
 0
LINE
 8
Line
 10
271
 20
274
 11
271
 21
272
 0
POLYLINE
 8
Poly
 66
 1
 0
VERTEX
 8
Poly
 10
140
 20
267
 0
VERTEX
 8
Poly
 10
143
 20
270
 0
VERTEX
 8
Poly
 10
140
 20
267
 0
VERTEX
 8
Poly
 10
138
 20
268
 0
VERTEX
 8
Poly
 10
130
 20
266
 0
SEQEND
 8
Poly
 0
POLYLINE
 8
Poly
 66
 1
 0
VERTEX
 8
Poly
 10
390
 20
265
 0
VERTEX
 8
Poly
 10
390
 20
267
 0
VERTEX
 8
Poly
 10
392
 20
267
 0
SEQEND
 8
Poly
 0
LINE
 8
Line
 10
392
 20
265
 11
390
 21
265
 0
LINE
 8
Line
 10
392
 20
267
 11
392
 21
265
 0
POLYLINE
 8
Poly
 66
 1
 0
VERTEX
 8
Poly
 10
155
 20
264
 0
VERTEX
 8
Poly
 10
153
 20
265
 0
VERTEX
 8
Poly
 10
155
 20
265
 0
VERTEX
 8
Poly
 10
155
 20
264
 0
VERTEX
 8
Poly
 10
156
 20
264
 0
VERTEX
 8
Poly
 10
155
 20
265
 0
SEQEND
 8
Poly
 0
POLYLINE
 8
Poly
 66
 1
 0
VERTEX
 8
Poly
 10
210
 20
262
 0
VERTEX
 8
Poly
 10
210
 20
264
 0
VERTEX
 8
Poly
 10
212
 20
264
 0
SEQEND
 8
Poly
 0
LINE
 8
Line
 10
212
 20
262
 11
210
 21
262
 0
LINE
 8
Line
 10
212
 20
264
 11
212
 21
262
 0
POLYLINE
 8
Poly
 66
 1
 0
VERTEX
 8
Poly
 10
159
 20
259
 0
VERTEX
 8
Poly
 10
159
 20
255
 0
VERTEX
 8
Poly
 10
162
 20
257
 0
VERTEX
 8
Poly
 10
159
 20
259
 0
SEQEND
 8
Poly
 0
POLYLINE
 8
Poly
 66
 1
 0
VERTEX
 8
Poly
 10
265
 20
257
 0
VERTEX
 8
Poly
 10
265
 20
259
 0
VERTEX
 8
Poly
 10
267
 20
259
 0
SEQEND
 8
Poly
 0
LINE
 8
Line
 10
267
 20
257
 11
265
 21
257
 0
LINE
 8
Line
 10
267
 20
259
 11
267
 21
257
 0
POLYLINE
 8
Poly
 66
 1
 0
VERTEX
 8
Poly
 10
218
 20
256
 0
VERTEX
 8
Poly
 10
218
 20
258
 0
VERTEX
 8
Poly
 10
220
 20
258
 0
SEQEND
 8
Poly
 0
LINE
 8
Line
 10
220
 20
256
 11
218
 21
256
 0
LINE
 8
Line
 10
220
 20
258
 11
220
 21
256
 0
POLYLINE
 8
Poly
 66
 1
 0
VERTEX
 8
Poly
 10
334
 20
256
 0
VERTEX
 8
Poly
 10
334
 20
258
 0
VERTEX
 8
Poly
 10
336
 20
258
 0
SEQEND
 8
Poly
 0
LINE
 8
Line
 10
336
 20
256
 11
334
 21
256
 0
LINE
 8
Line
 10
336
 20
258
 11
336
 21
256
 0
POLYLINE
 8
Poly
 66
 1
 0
VERTEX
 8
Poly
 10
247
 20
255
 0
VERTEX
 8
Poly
 10
247
 20
257
 0
VERTEX
 8
Poly
 10
249
 20
257
 0
SEQEND
 8
Poly
 0
LINE
 8
Line
 10
249
 20
255
 11
247
 21
255
 0
LINE
 8
Line
 10
249
 20
257
 11
249
 21
255
 0
POLYLINE
 8
Poly
 66
 1
 0
VERTEX
 8
Poly
 10
378
 20
255
 0
VERTEX
 8
Poly
 10
378
 20
257
 0
VERTEX
 8
Poly
 10
381
 20
257
 0
SEQEND
 8
Poly
 0
LINE
 8
Line
 10
381
 20
255
 11
378
 21
255
 0
LINE
 8
Line
 10
381
 20
257
 11
381
 21
255
 0
POLYLINE
 8
Poly
 66
 1
 0
VERTEX
 8
Poly
 10
174
 20
252
 0
VERTEX
 8
Poly
 10
174
 20
255
 0
VERTEX
 8
Poly
 10
173
 20
253
 0
VERTEX
 8
Poly
 10
174
 20
252
 0
VERTEX
 8
Poly
 10
173
 20
253
 0
SEQEND
 8
Poly
 0
POLYLINE
 8
Poly
 66
 1
 0
VERTEX
 8
Poly
 10
155
 20
247
 0
VERTEX
 8
Poly
 10
158
 20
251
 0
VERTEX
 8
Poly
 10
159
 20
249
 0
VERTEX
 8
Poly
 10
155
 20
247
 0
VERTEX
 8
Poly
 10
153
 20
246
 0
VERTEX
 8
Poly
 10
153
 20
247
 0
SEQEND
 8
Poly
 0
LINE
 8
Line
 10
153
 20
246
 11
146
 21
245
 0
LINE
 8
Line
 10
152
 20
247
 11
153
 21
247
 0
LINE
 8
Line
 10
146
 20
245
 11
152
 21
247
 0
POLYLINE
 8
Poly
 66
 1
 0
VERTEX
 8
Poly
 10
199
 20
248
 0
VERTEX
 8
Poly
 10
198
 20
250
 0
VERTEX
 8
Poly
 10
198
 20
248
 0
VERTEX
 8
Poly
 10
199
 20
248
 0
SEQEND
 8
Poly
 0
LINE
 8
Line
 10
198
 20
248
 11
197
 21
246
 0
POLYLINE
 8
Poly
 66
 1
 0
VERTEX
 8
Poly
 10
189
 20
249
 0
VERTEX
 8
Poly
 10
188
 20
244
 0
VERTEX
 8
Poly
 10
189
 20
249
 0
SEQEND
 8
Poly
 0
POLYLINE
 8
Poly
 66
 1
 0
VERTEX
 8
Poly
 10
287
 20
246
 0
VERTEX
 8
Poly
 10
287
 20
248
 0
VERTEX
 8
Poly
 10
289
 20
248
 0
SEQEND
 8
Poly
 0
LINE
 8
Line
 10
289
 20
246
 11
287
 21
246
 0
LINE
 8
Line
 10
289
 20
248
 11
289
 21
246
 0
POLYLINE
 8
Poly
 66
 1
 0
VERTEX
 8
Poly
 10
388
 20
244
 0
VERTEX
 8
Poly
 10
388
 20
246
 0
VERTEX
 8
Poly
 10
390
 20
246
 0
SEQEND
 8
Poly
 0
LINE
 8
Line
 10
390
 20
244
 11
388
 21
244
 0
LINE
 8
Line
 10
390
 20
246
 11
390
 21
244
 0
POLYLINE
 8
Poly
 66
 1
 0
VERTEX
 8
Poly
 10
199
 20
244
 0
VERTEX
 8
Poly
 10
198
 20
244
 0
VERTEX
 8
Poly
 10
199
 20
243
 0
VERTEX
 8
Poly
 10
198
 20
244
 0
SEQEND
 8
Poly
 0
LINE
 8
Line
 10
199
 20
243
 11
200
 21
243
 0
POLYLINE
 8
Poly
 66
 1
 0
VERTEX
 8
Poly
 10
162
 20
236
 0
VERTEX
 8
Poly
 10
163
 20
242
 0
VERTEX
 8
Poly
 10
165
 20
240
 0
SEQEND
 8
Poly
 0
LINE
 8
Line
 10
164
 20
238
 11
162
 21
236
 0
POLYLINE
 8
Poly
 66
 1
 0
VERTEX
 8
Poly
 10
164
 20
238
 0
VERTEX
 8
Poly
 10
165
 20
240
 0
VERTEX
 8
Poly
 10
166
 20
240
 0
SEQEND
 8
Poly
 0
POLYLINE
 8
Poly
 66
 1
 0
VERTEX
 8
Poly
 10
211
 20
239
 0
VERTEX
 8
Poly
 10
211
 20
241
 0
VERTEX
 8
Poly
 10
211
 20
239
 0
VERTEX
 8
Poly
 10
210
 20
238
 0
VERTEX
 8
Poly
 10
209
 20
237
 0
VERTEX
 8
Poly
 10
210
 20
238
 0
SEQEND
 8
Poly
 0
LINE
 8
Line
 10
209
 20
237
 11
208
 21
238
 0
POLYLINE
 8
Poly
 66
 1
 0
VERTEX
 8
Poly
 10
142
 20
238
 0
VERTEX
 8
Poly
 10
143
 20
239
 0
VERTEX
 8
Poly
 10
143
 20
237
 0
VERTEX
 8
Poly
 10
142
 20
238
 0
VERTEX
 8
Poly
 10
143
 20
237
 0
SEQEND
 8
Poly
 0
LINE
 8
Line
 10
142
 20
232
 11
144
 21
233
 0
POLYLINE
 8
Poly
 66
 1
 0
VERTEX
 8
Poly
 10
143
 20
230
 0
VERTEX
 8
Poly
 10
142
 20
231
 0
VERTEX
 8
Poly
 10
143
 20
230
 0
SEQEND
 8
Poly
 0
POLYLINE
 8
Poly
 66
 1
 0
VERTEX
 8
Poly
 10
145
 20
232
 0
VERTEX
 8
Poly
 10
144
 20
233
 0
VERTEX
 8
Poly
 10
145
 20
232
 0
VERTEX
 8
Poly
 10
143
 20
230
 0
SEQEND
 8
Poly
 0
LINE
 8
Line
 10
175
 20
236
 11
174
 21
238
 0
LINE
 8
Line
 10
174
 20
236
 11
175
 21
236
 0
LINE
 8
Line
 10
174
 20
238
 11
174
 21
235
 0
POLYLINE
 8
Poly
 66
 1
 0
VERTEX
 8
Poly
 10
292
 20
235
 0
VERTEX
 8
Poly
 10
292
 20
237
 0
VERTEX
 8
Poly
 10
294
 20
237
 0
SEQEND
 8
Poly
 0
LINE
 8
Line
 10
294
 20
235
 11
292
 21
235
 0
LINE
 8
Line
 10
294
 20
237
 11
294
 21
235
 0
POLYLINE
 8
Poly
 66
 1
 0
VERTEX
 8
Poly
 10
167
 20
234
 0
VERTEX
 8
Poly
 10
169
 20
236
 0
VERTEX
 8
Poly
 10
171
 20
236
 0
SEQEND
 8
Poly
 0
POLYLINE
 8
Poly
 66
 1
 0
VERTEX
 8
Poly
 10
167
 20
233
 0
VERTEX
 8
Poly
 10
167
 20
234
 0
VERTEX
 8
Poly
 10
166
 20
234
 0
SEQEND
 8
Poly
 0
LINE
 8
Line
 10
171
 20
235
 11
171
 21
236
 0
POLYLINE
 8
Poly
 66
 1
 0
VERTEX
 8
Poly
 10
167
 20
233
 0
VERTEX
 8
Poly
 10
171
 20
235
 0
VERTEX
 8
Poly
 10
172
 20
235
 0
SEQEND
 8
Poly
 0
POLYLINE
 8
Poly
 66
 1
 0
VERTEX
 8
Poly
 10
185
 20
234
 0
VERTEX
 8
Poly
 10
184
 20
236
 0
VERTEX
 8
Poly
 10
186
 20
235
 0
VERTEX
 8
Poly
 10
185
 20
234
 0
VERTEX
 8
Poly
 10
186
 20
235
 0
SEQEND
 8
Poly
 0
POLYLINE
 8
Poly
 66
 1
 0
VERTEX
 8
Poly
 10
243
 20
233
 0
VERTEX
 8
Poly
 10
243
 20
236
 0
VERTEX
 8
Poly
 10
245
 20
236
 0
SEQEND
 8
Poly
 0
LINE
 8
Line
 10
245
 20
233
 11
243
 21
233
 0
LINE
 8
Line
 10
245
 20
236
 11
245
 21
233
 0
POLYLINE
 8
Poly
 66
 1
 0
VERTEX
 8
Poly
 10
199
 20
233
 0
VERTEX
 8
Poly
 10
199
 20
235
 0
VERTEX
 8
Poly
 10
199
 20
233
 0
VERTEX
 8
Poly
 10
200
 20
232
 0
SEQEND
 8
Poly
 0
POLYLINE
 8
Poly
 66
 1
 0
VERTEX
 8
Poly
 10
161
 20
234
 0
VERTEX
 8
Poly
 10
163
 20
232
 0
VERTEX
 8
Poly
 10
161
 20
234
 0
SEQEND
 8
Poly
 0
POLYLINE
 8
Poly
 66
 1
 0
VERTEX
 8
Poly
 10
154
 20
232
 0
VERTEX
 8
Poly
 10
155
 20
233
 0
VERTEX
 8
Poly
 10
154
 20
232
 0
VERTEX
 8
Poly
 10
153
 20
231
 0
SEQEND
 8
Poly
 0
POLYLINE
 8
Poly
 66
 1
 0
VERTEX
 8
Poly
 10
249
 20
230
 0
VERTEX
 8
Poly
 10
249
 20
232
 0
VERTEX
 8
Poly
 10
251
 20
232
 0
SEQEND
 8
Poly
 0
LINE
 8
Line
 10
251
 20
230
 11
249
 21
230
 0
LINE
 8
Line
 10
251
 20
232
 11
251
 21
230
 0
POLYLINE
 8
Poly
 66
 1
 0
VERTEX
 8
Poly
 10
179
 20
229
 0
VERTEX
 8
Poly
 10
179
 20
231
 0
VERTEX
 8
Poly
 10
179
 20
229
 0
VERTEX
 8
Poly
 10
178
 20
228
 0
SEQEND
 8
Poly
 0
POLYLINE
 8
Poly
 66
 1
 0
VERTEX
 8
Poly
 10
232
 20
230
 0
VERTEX
 8
Poly
 10
232
 20
231
 0
VERTEX
 8
Poly
 10
233
 20
230
 0
SEQEND
 8
Poly
 0
LINE
 8
Line
 10
232
 20
231
 11
230
 21
229
 0
POLYLINE
 8
Poly
 66
 1
 0
VERTEX
 8
Poly
 10
222
 20
229
 0
VERTEX
 8
Poly
 10
220
 20
230
 0
VERTEX
 8
Poly
 10
222
 20
229
 0
VERTEX
 8
Poly
 10
223
 20
228
 0
SEQEND
 8
Poly
 0
POLYLINE
 8
Poly
 66
 1
 0
VERTEX
 8
Poly
 10
154
 20
227
 0
VERTEX
 8
Poly
 10
153
 20
228
 0
VERTEX
 8
Poly
 10
158
 20
228
 0
VERTEX
 8
Poly
 10
158
 20
226
 0
VERTEX
 8
Poly
 10
154
 20
227
 0
SEQEND
 8
Poly
 0
POLYLINE
 8
Poly
 66
 1
 0
VERTEX
 8
Poly
 10
164
 20
227
 0
VERTEX
 8
Poly
 10
164
 20
228
 0
VERTEX
 8
Poly
 10
163
 20
226
 0
VERTEX
 8
Poly
 10
164
 20
227
 0
VERTEX
 8
Poly
 10
165
 20
225
 0
SEQEND
 8
Poly
 0
LINE
 8
Line
 10
163
 20
226
 11
165
 21
226
 0
LINE
 8
Line
 10
166
 20
226
 11
166
 21
227
 0
POLYLINE
 8
Poly
 66
 1
 0
VERTEX
 8
Poly
 10
203
 20
228
 0
VERTEX
 8
Poly
 10
205
 20
225
 0
VERTEX
 8
Poly
 10
202
 20
225
 0
VERTEX
 8
Poly
 10
203
 20
228
 0
SEQEND
 8
Poly
 0
POLYLINE
 8
Poly
 66
 1
 0
VERTEX
 8
Poly
 10
197
 20
226
 0
VERTEX
 8
Poly
 10
195
 20
223
 0
VERTEX
 8
Poly
 10
197
 20
226
 0
SEQEND
 8
Poly
 0
POLYLINE
 8
Poly
 66
 1
 0
VERTEX
 8
Poly
 10
211
 20
226
 0
VERTEX
 8
Poly
 10
207
 20
222
 0
VERTEX
 8
Poly
 10
208
 20
221
 0
SEQEND
 8
Poly
 0
POLYLINE
 8
Poly
 66
 1
 0
VERTEX
 8
Poly
 10
211
 20
226
 0
VERTEX
 8
Poly
 10
213
 20
224
 0
VERTEX
 8
Poly
 10
214
 20
222
 0
VERTEX
 8
Poly
 10
213
 20
221
 0
VERTEX
 8
Poly
 10
208
 20
221
 0
SEQEND
 8
Poly
 0
POLYLINE
 8
Poly
 66
 1
 0
VERTEX
 8
Poly
 10
257
 20
224
 0
VERTEX
 8
Poly
 10
257
 20
226
 0
VERTEX
 8
Poly
 10
259
 20
226
 0
SEQEND
 8
Poly
 0
LINE
 8
Line
 10
259
 20
224
 11
257
 21
224
 0
LINE
 8
Line
 10
259
 20
226
 11
259
 21
224
 0
POLYLINE
 8
Poly
 66
 1
 0
VERTEX
 8
Poly
 10
175
 20
223
 0
VERTEX
 8
Poly
 10
168
 20
225
 0
VERTEX
 8
Poly
 10
175
 20
223
 0
SEQEND
 8
Poly
 0
POLYLINE
 8
Poly
 66
 1
 0
VERTEX
 8
Poly
 10
185
 20
219
 0
VERTEX
 8
Poly
 10
189
 20
225
 0
VERTEX
 8
Poly
 10
185
 20
220
 0
VERTEX
 8
Poly
 10
185
 20
219
 0
VERTEX
 8
Poly
 10
182
 20
220
 0
VERTEX
 8
Poly
 10
185
 20
220
 0
SEQEND
 8
Poly
 0
LINE
 8
Line
 10
182
 20
220
 11
182
 21
221
 0
POLYLINE
 8
Poly
 66
 1
 0
VERTEX
 8
Poly
 10
150
 20
222
 0
VERTEX
 8
Poly
 10
145
 20
224
 0
VERTEX
 8
Poly
 10
150
 20
222
 0
VERTEX
 8
Poly
 10
151
 20
222
 0
SEQEND
 8
Poly
 0
POLYLINE
 8
Poly
 66
 1
 0
VERTEX
 8
Poly
 10
161
 20
222
 0
VERTEX
 8
Poly
 10
160
 20
224
 0
VERTEX
 8
Poly
 10
160
 20
221
 0
VERTEX
 8
Poly
 10
161
 20
222
 0
VERTEX
 8
Poly
 10
160
 20
221
 0
SEQEND
 8
Poly
 0
POLYLINE
 8
Poly
 66
 1
 0
VERTEX
 8
Poly
 10
268
 20
221
 0
VERTEX
 8
Poly
 10
268
 20
223
 0
VERTEX
 8
Poly
 10
270
 20
223
 0
SEQEND
 8
Poly
 0
LINE
 8
Line
 10
270
 20
221
 11
268
 21
221
 0
LINE
 8
Line
 10
270
 20
223
 11
270
 21
221
 0
POLYLINE
 8
Poly
 66
 1
 0
VERTEX
 8
Poly
 10
248
 20
220
 0
VERTEX
 8
Poly
 10
247
 20
222
 0
VERTEX
 8
Poly
 10
248
 20
220
 0
VERTEX
 8
Poly
 10
249
 20
220
 0
SEQEND
 8
Poly
 0
POLYLINE
 8
Poly
 66
 1
 0
VERTEX
 8
Poly
 10
369
 20
220
 0
VERTEX
 8
Poly
 10
369
 20
222
 0
VERTEX
 8
Poly
 10
371
 20
222
 0
SEQEND
 8
Poly
 0
LINE
 8
Line
 10
371
 20
220
 11
369
 21
220
 0
LINE
 8
Line
 10
371
 20
222
 11
371
 21
220
 0
POLYLINE
 8
Poly
 66
 1
 0
VERTEX
 8
Poly
 10
236
 20
221
 0
VERTEX
 8
Poly
 10
238
 20
219
 0
VERTEX
 8
Poly
 10
236
 20
221
 0
SEQEND
 8
Poly
 0
POLYLINE
 8
Poly
 66
 1
 0
VERTEX
 8
Poly
 10
188
 20
218
 0
VERTEX
 8
Poly
 10
189
 20
219
 0
VERTEX
 8
Poly
 10
189
 20
220
 0
VERTEX
 8
Poly
 10
192
 20
219
 0
SEQEND
 8
Poly
 0
LINE
 8
Line
 10
192
 20
218
 11
192
 21
219
 0
LINE
 8
Line
 10
188
 20
218
 11
193
 21
218
 0
POLYLINE
 8
Poly
 66
 1
 0
VERTEX
 8
Poly
 10
282
 20
218
 0
VERTEX
 8
Poly
 10
282
 20
220
 0
VERTEX
 8
Poly
 10
284
 20
220
 0
SEQEND
 8
Poly
 0
LINE
 8
Line
 10
284
 20
218
 11
282
 21
218
 0
LINE
 8
Line
 10
284
 20
220
 11
284
 21
218
 0
POLYLINE
 8
Poly
 66
 1
 0
VERTEX
 8
Poly
 10
143
 20
218
 0
VERTEX
 8
Poly
 10
143
 20
219
 0
VERTEX
 8
Poly
 10
142
 20
217
 0
VERTEX
 8
Poly
 10
143
 20
218
 0
VERTEX
 8
Poly
 10
144
 20
217
 0
SEQEND
 8
Poly
 0
POLYLINE
 8
Poly
 66
 1
 0
VERTEX
 8
Poly
 10
142
 20
217
 0
VERTEX
 8
Poly
 10
143
 20
216
 0
VERTEX
 8
Poly
 10
144
 20
217
 0
VERTEX
 8
Poly
 10
143
 20
216
 0
SEQEND
 8
Poly
 0
POLYLINE
 8
Poly
 66
 1
 0
VERTEX
 8
Poly
 10
242
 20
219
 0
VERTEX
 8
Poly
 10
244
 20
217
 0
VERTEX
 8
Poly
 10
242
 20
219
 0
SEQEND
 8
Poly
 0
POLYLINE
 8
Poly
 66
 1
 0
VERTEX
 8
Poly
 10
169
 20
217
 0
VERTEX
 8
Poly
 10
170
 20
218
 0
VERTEX
 8
Poly
 10
170
 20
216
 0
SEQEND
 8
Poly
 0
POLYLINE
 8
Poly
 66
 1
 0
VERTEX
 8
Poly
 10
169
 20
215
 0
VERTEX
 8
Poly
 10
168
 20
216
 0
VERTEX
 8
Poly
 10
169
 20
217
 0
VERTEX
 8
Poly
 10
171
 20
215
 0
SEQEND
 8
Poly
 0
LINE
 8
Line
 10
168
 20
216
 11
169
 21
215
 0
POLYLINE
 8
Poly
 66
 1
 0
VERTEX
 8
Poly
 10
171
 20
213
 0
VERTEX
 8
Poly
 10
171
 20
215
 0
VERTEX
 8
Poly
 10
170
 20
214
 0
VERTEX
 8
Poly
 10
169
 20
215
 0
SEQEND
 8
Poly
 0
POLYLINE
 8
Poly
 66
 1
 0
VERTEX
 8
Poly
 10
170
 20
214
 0
VERTEX
 8
Poly
 10
171
 20
213
 0
VERTEX
 8
Poly
 10
172
 20
212
 0
SEQEND
 8
Poly
 0
POLYLINE
 8
Poly
 66
 1
 0
VERTEX
 8
Poly
 10
179
 20
216
 0
VERTEX
 8
Poly
 10
179
 20
218
 0
VERTEX
 8
Poly
 10
179
 20
216
 0
VERTEX
 8
Poly
 10
178
 20
215
 0
SEQEND
 8
Poly
 0
POLYLINE
 8
Poly
 66
 1
 0
VERTEX
 8
Poly
 10
221
 20
218
 0
VERTEX
 8
Poly
 10
224
 20
214
 0
VERTEX
 8
Poly
 10
224
 20
217
 0
VERTEX
 8
Poly
 10
223
 20
218
 0
VERTEX
 8
Poly
 10
221
 20
218
 0
SEQEND
 8
Poly
 0
POLYLINE
 8
Poly
 66
 1
 0
VERTEX
 8
Poly
 10
197
 20
214
 0
VERTEX
 8
Poly
 10
195
 20
217
 0
VERTEX
 8
Poly
 10
191
 20
212
 0
SEQEND
 8
Poly
 0
POLYLINE
 8
Poly
 66
 1
 0
VERTEX
 8
Poly
 10
198
 20
215
 0
VERTEX
 8
Poly
 10
197
 20
214
 0
VERTEX
 8
Poly
 10
197
 20
210
 0
VERTEX
 8
Poly
 10
191
 20
212
 0
VERTEX
 8
Poly
 10
189
 20
211
 0
SEQEND
 8
Poly
 0
POLYLINE
 8
Poly
 66
 1
 0
VERTEX
 8
Poly
 10
198
 20
215
 0
VERTEX
 8
Poly
 10
203
 20
214
 0
VERTEX
 8
Poly
 10
198
 20
215
 0
SEQEND
 8
Poly
 0
POLYLINE
 8
Poly
 66
 1
 0
VERTEX
 8
Poly
 10
189
 20
211
 0
VERTEX
 8
Poly
 10
187
 20
211
 0
VERTEX
 8
Poly
 10
188
 20
213
 0
SEQEND
 8
Poly
 0
POLYLINE
 8
Poly
 66
 1
 0
VERTEX
 8
Poly
 10
342
 20
214
 0
VERTEX
 8
Poly
 10
342
 20
216
 0
VERTEX
 8
Poly
 10
344
 20
216
 0
SEQEND
 8
Poly
 0
LINE
 8
Line
 10
344
 20
214
 11
342
 21
214
 0
LINE
 8
Line
 10
344
 20
216
 11
344
 21
214
 0
POLYLINE
 8
Poly
 66
 1
 0
VERTEX
 8
Poly
 10
208
 20
214
 0
VERTEX
 8
Poly
 10
207
 20
215
 0
VERTEX
 8
Poly
 10
208
 20
214
 0
VERTEX
 8
Poly
 10
209
 20
213
 0
SEQEND
 8
Poly
 0
POLYLINE
 8
Poly
 66
 1
 0
VERTEX
 8
Poly
 10
217
 20
212
 0
VERTEX
 8
Poly
 10
216
 20
213
 0
VERTEX
 8
Poly
 10
216
 20
211
 0
VERTEX
 8
Poly
 10
217
 20
212
 0
VERTEX
 8
Poly
 10
218
 20
212
 0
VERTEX
 8
Poly
 10
216
 20
211
 0
SEQEND
 8
Poly
 0
POLYLINE
 8
Poly
 66
 1
 0
VERTEX
 8
Poly
 10
371
 20
211
 0
VERTEX
 8
Poly
 10
371
 20
213
 0
VERTEX
 8
Poly
 10
373
 20
213
 0
SEQEND
 8
Poly
 0
LINE
 8
Line
 10
373
 20
211
 11
371
 21
211
 0
LINE
 8
Line
 10
373
 20
213
 11
373
 21
211
 0
POLYLINE
 8
Poly
 66
 1
 0
VERTEX
 8
Poly
 10
344
 20
210
 0
VERTEX
 8
Poly
 10
344
 20
212
 0
VERTEX
 8
Poly
 10
349
 20
211
 0
SEQEND
 8
Poly
 0
LINE
 8
Line
 10
349
 20
209
 11
344
 21
210
 0
LINE
 8
Line
 10
349
 20
211
 11
349
 21
209
 0
POLYLINE
 8
Poly
 66
 1
 0
VERTEX
 8
Poly
 10
160
 20
211
 0
VERTEX
 8
Poly
 10
152
 20
211
 0
VERTEX
 8
Poly
 10
154
 20
209
 0
VERTEX
 8
Poly
 10
159
 20
211
 0
SEQEND
 8
Poly
 0
POLYLINE
 8
Poly
 66
 1
 0
VERTEX
 8
Poly
 10
253
 20
210
 0
VERTEX
 8
Poly
 10
252
 20
211
 0
VERTEX
 8
Poly
 10
253
 20
210
 0
VERTEX
 8
Poly
 10
254
 20
209
 0
SEQEND
 8
Poly
 0
POLYLINE
 8
Poly
 66
 1
 0
VERTEX
 8
Poly
 10
182
 20
209
 0
VERTEX
 8
Poly
 10
182
 20
210
 0
VERTEX
 8
Poly
 10
181
 20
209
 0
SEQEND
 8
Poly
 0
LINE
 8
Line
 10
182
 20
210
 11
182
 21
209
 0
POLYLINE
 8
Poly
 66
 1
 0
VERTEX
 8
Poly
 10
223
 20
209
 0
VERTEX
 8
Poly
 10
224
 20
210
 0
VERTEX
 8
Poly
 10
223
 20
208
 0
VERTEX
 8
Poly
 10
223
 20
209
 0
VERTEX
 8
Poly
 10
223
 20
208
 0
SEQEND
 8
Poly
 0
POLYLINE
 8
Poly
 66
 1
 0
VERTEX
 8
Poly
 10
180
 20
207
 0
VERTEX
 8
Poly
 10
178
 20
209
 0
VERTEX
 8
Poly
 10
180
 20
206
 0
VERTEX
 8
Poly
 10
180
 20
207
 0
VERTEX
 8
Poly
 10
181
 20
207
 0
SEQEND
 8
Poly
 0
POLYLINE
 8
Poly
 66
 1
 0
VERTEX
 8
Poly
 10
189
 20
205
 0
VERTEX
 8
Poly
 10
189
 20
206
 0
VERTEX
 8
Poly
 10
190
 20
209
 0
VERTEX
 8
Poly
 10
192
 20
209
 0
SEQEND
 8
Poly
 0
POLYLINE
 8
Poly
 66
 1
 0
VERTEX
 8
Poly
 10
192
 20
209
 0
VERTEX
 8
Poly
 10
192
 20
208
 0
VERTEX
 8
Poly
 10
191
 20
205
 0
SEQEND
 8
Poly
 0
LINE
 8
Line
 10
192
 20
208
 11
193
 21
208
 0
POLYLINE
 8
Poly
 66
 1
 0
VERTEX
 8
Poly
 10
189
 20
205
 0
VERTEX
 8
Poly
 10
193
 20
205
 0
VERTEX
 8
Poly
 10
193
 20
206
 0
SEQEND
 8
Poly
 0
LINE
 8
Line
 10
195
 20
208
 11
193
 21
205
 0
LINE
 8
Line
 10
193
 20
206
 11
195
 21
208
 0
POLYLINE
 8
Poly
 66
 1
 0
VERTEX
 8
Poly
 10
237
 20
207
 0
VERTEX
 8
Poly
 10
237
 20
209
 0
VERTEX
 8
Poly
 10
237
 20
207
 0
VERTEX
 8
Poly
 10
238
 20
206
 0
SEQEND
 8
Poly
 0
POLYLINE
 8
Poly
 66
 1
 0
VERTEX
 8
Poly
 10
272
 20
207
 0
VERTEX
 8
Poly
 10
272
 20
209
 0
VERTEX
 8
Poly
 10
274
 20
209
 0
SEQEND
 8
Poly
 0
LINE
 8
Line
 10
274
 20
207
 11
272
 21
207
 0
LINE
 8
Line
 10
274
 20
209
 11
274
 21
207
 0
LINE
 8
Line
 10
147
 20
208
 11
146
 21
200
 0
POLYLINE
 8
Poly
 66
 1
 0
VERTEX
 8
Poly
 10
147
 20
208
 0
VERTEX
 8
Poly
 10
144
 20
200
 0
VERTEX
 8
Poly
 10
147
 20
200
 0
SEQEND
 8
Poly
 0
POLYLINE
 8
Poly
 66
 1
 0
VERTEX
 8
Poly
 10
391
 20
206
 0
VERTEX
 8
Poly
 10
391
 20
208
 0
VERTEX
 8
Poly
 10
393
 20
208
 0
SEQEND
 8
Poly
 0
LINE
 8
Line
 10
393
 20
206
 11
391
 21
206
 0
LINE
 8
Line
 10
393
 20
208
 11
393
 21
206
 0
POLYLINE
 8
Poly
 66
 1
 0
VERTEX
 8
Poly
 10
203
 20
203
 0
VERTEX
 8
Poly
 10
202
 20
205
 0
VERTEX
 8
Poly
 10
202
 20
202
 0
VERTEX
 8
Poly
 10
203
 20
203
 0
VERTEX
 8
Poly
 10
202
 20
202
 0
SEQEND
 8
Poly
 0
POLYLINE
 8
Poly
 66
 1
 0
VERTEX
 8
Poly
 10
219
 20
205
 0
VERTEX
 8
Poly
 10
223
 20
204
 0
VERTEX
 8
Poly
 10
222
 20
205
 0
VERTEX
 8
Poly
 10
219
 20
205
 0
SEQEND
 8
Poly
 0
POLYLINE
 8
Poly
 66
 1
 0
VERTEX
 8
Poly
 10
157
 20
204
 0
VERTEX
 8
Poly
 10
159
 20
202
 0
VERTEX
 8
Poly
 10
157
 20
204
 0
SEQEND
 8
Poly
 0
POLYLINE
 8
Poly
 66
 1
 0
VERTEX
 8
Poly
 10
266
 20
203
 0
VERTEX
 8
Poly
 10
267
 20
204
 0
VERTEX
 8
Poly
 10
268
 20
202
 0
SEQEND
 8
Poly
 0
POLYLINE
 8
Poly
 66
 1
 0
VERTEX
 8
Poly
 10
267
 20
202
 0
VERTEX
 8
Poly
 10
266
 20
203
 0
VERTEX
 8
Poly
 10
267
 20
202
 0
VERTEX
 8
Poly
 10
268
 20
202
 0
SEQEND
 8
Poly
 0
POLYLINE
 8
Poly
 66
 1
 0
VERTEX
 8
Poly
 10
301
 20
202
 0
VERTEX
 8
Poly
 10
301
 20
204
 0
VERTEX
 8
Poly
 10
303
 20
204
 0
SEQEND
 8
Poly
 0
LINE
 8
Line
 10
303
 20
202
 11
301
 21
202
 0
LINE
 8
Line
 10
303
 20
204
 11
303
 21
202
 0
POLYLINE
 8
Poly
 66
 1
 0
VERTEX
 8
Poly
 10
192
 20
202
 0
VERTEX
 8
Poly
 10
192
 20
203
 0
VERTEX
 8
Poly
 10
192
 20
202
 0
SEQEND
 8
Poly
 0
POLYLINE
 8
Poly
 66
 1
 0
VERTEX
 8
Poly
 10
243
 20
200
 0
VERTEX
 8
Poly
 10
242
 20
202
 0
VERTEX
 8
Poly
 10
240
 20
198
 0
SEQEND
 8
Poly
 0
POLYLINE
 8
Poly
 66
 1
 0
VERTEX
 8
Poly
 10
243
 20
200
 0
VERTEX
 8
Poly
 10
246
 20
197
 0
VERTEX
 8
Poly
 10
244
 20
198
 0
VERTEX
 8
Poly
 10
240
 20
198
 0
SEQEND
 8
Poly
 0
POLYLINE
 8
Poly
 66
 1
 0
VERTEX
 8
Poly
 10
237
 20
200
 0
VERTEX
 8
Poly
 10
236
 20
201
 0
VERTEX
 8
Poly
 10
237
 20
199
 0
VERTEX
 8
Poly
 10
237
 20
200
 0
VERTEX
 8
Poly
 10
238
 20
200
 0
SEQEND
 8
Poly
 0
POLYLINE
 8
Poly
 66
 1
 0
VERTEX
 8
Poly
 10
217
 20
199
 0
VERTEX
 8
Poly
 10
218
 20
200
 0
VERTEX
 8
Poly
 10
218
 20
198
 0
VERTEX
 8
Poly
 10
217
 20
199
 0
VERTEX
 8
Poly
 10
216
 20
199
 0
VERTEX
 8
Poly
 10
218
 20
198
 0
SEQEND
 8
Poly
 0
POLYLINE
 8
Poly
 66
 1
 0
VERTEX
 8
Poly
 10
268
 20
197
 0
VERTEX
 8
Poly
 10
268
 20
200
 0
VERTEX
 8
Poly
 10
268
 20
197
 0
VERTEX
 8
Poly
 10
269
 20
196
 0
SEQEND
 8
Poly
 0
POLYLINE
 8
Poly
 66
 1
 0
VERTEX
 8
Poly
 10
147
 20
196
 0
VERTEX
 8
Poly
 10
147
 20
198
 0
VERTEX
 8
Poly
 10
147
 20
196
 0
VERTEX
 8
Poly
 10
149
 20
195
 0
VERTEX
 8
Poly
 10
149
 20
194
 0
VERTEX
 8
Poly
 10
149
 20
195
 0
SEQEND
 8
Poly
 0
POLYLINE
 8
Poly
 66
 1
 0
VERTEX
 8
Poly
 10
191
 20
197
 0
VERTEX
 8
Poly
 10
190
 20
198
 0
VERTEX
 8
Poly
 10
189
 20
196
 0
VERTEX
 8
Poly
 10
191
 20
197
 0
SEQEND
 8
Poly
 0
POLYLINE
 8
Poly
 66
 1
 0
VERTEX
 8
Poly
 10
176
 20
197
 0
VERTEX
 8
Poly
 10
178
 20
195
 0
VERTEX
 8
Poly
 10
176
 20
197
 0
SEQEND
 8
Poly
 0
POLYLINE
 8
Poly
 66
 1
 0
VERTEX
 8
Poly
 10
229
 20
196
 0
VERTEX
 8
Poly
 10
228
 20
197
 0
VERTEX
 8
Poly
 10
229
 20
195
 0
VERTEX
 8
Poly
 10
229
 20
196
 0
VERTEX
 8
Poly
 10
230
 20
196
 0
SEQEND
 8
Poly
 0
POLYLINE
 8
Poly
 66
 1
 0
VERTEX
 8
Poly
 10
225
 20
196
 0
VERTEX
 8
Poly
 10
224
 20
196
 0
VERTEX
 8
Poly
 10
225
 20
195
 0
SEQEND
 8
Poly
 0
POLYLINE
 8
Poly
 66
 1
 0
VERTEX
 8
Poly
 10
224
 20
196
 0
VERTEX
 8
Poly
 10
224
 20
194
 0
VERTEX
 8
Poly
 10
225
 20
195
 0
VERTEX
 8
Poly
 10
224
 20
194
 0
SEQEND
 8
Poly
 0
POLYLINE
 8
Poly
 66
 1
 0
VERTEX
 8
Poly
 10
233
 20
196
 0
VERTEX
 8
Poly
 10
228
 20
191
 0
VERTEX
 8
Poly
 10
233
 20
196
 0
SEQEND
 8
Poly
 0
POLYLINE
 8
Poly
 66
 1
 0
VERTEX
 8
Poly
 10
242
 20
195
 0
VERTEX
 8
Poly
 10
243
 20
196
 0
VERTEX
 8
Poly
 10
242
 20
194
 0
VERTEX
 8
Poly
 10
242
 20
195
 0
VERTEX
 8
Poly
 10
241
 20
195
 0
SEQEND
 8
Poly
 0
POLYLINE
 8
Poly
 66
 1
 0
VERTEX
 8
Poly
 10
309
 20
193
 0
VERTEX
 8
Poly
 10
309
 20
195
 0
VERTEX
 8
Poly
 10
311
 20
195
 0
SEQEND
 8
Poly
 0
LINE
 8
Line
 10
311
 20
193
 11
309
 21
193
 0
LINE
 8
Line
 10
311
 20
195
 11
311
 21
193
 0
POLYLINE
 8
Poly
 66
 1
 0
VERTEX
 8
Poly
 10
376
 20
192
 0
VERTEX
 8
Poly
 10
376
 20
194
 0
VERTEX
 8
Poly
 10
378
 20
194
 0
SEQEND
 8
Poly
 0
LINE
 8
Line
 10
378
 20
192
 11
376
 21
192
 0
LINE
 8
Line
 10
378
 20
194
 11
378
 21
192
 0
POLYLINE
 8
Poly
 66
 1
 0
VERTEX
 8
Poly
 10
368
 20
191
 0
VERTEX
 8
Poly
 10
368
 20
193
 0
VERTEX
 8
Poly
 10
370
 20
193
 0
SEQEND
 8
Poly
 0
LINE
 8
Line
 10
370
 20
191
 11
368
 21
191
 0
LINE
 8
Line
 10
370
 20
193
 11
370
 21
191
 0
POLYLINE
 8
Poly
 66
 1
 0
VERTEX
 8
Poly
 10
192
 20
189
 0
VERTEX
 8
Poly
 10
191
 20
191
 0
VERTEX
 8
Poly
 10
190
 20
189
 0
SEQEND
 8
Poly
 0
POLYLINE
 8
Poly
 66
 1
 0
VERTEX
 8
Poly
 10
193
 20
189
 0
VERTEX
 8
Poly
 10
192
 20
189
 0
VERTEX
 8
Poly
 10
191
 20
188
 0
VERTEX
 8
Poly
 10
190
 20
189
 0
SEQEND
 8
Poly
 0
LINE
 8
Line
 10
190
 20
189
 11
191
 21
188
 0
POLYLINE
 8
Poly
 66
 1
 0
VERTEX
 8
Poly
 10
217
 20
189
 0
VERTEX
 8
Poly
 10
218
 20
190
 0
VERTEX
 8
Poly
 10
220
 20
190
 0
VERTEX
 8
Poly
 10
221
 20
189
 0
VERTEX
 8
Poly
 10
219
 20
188
 0
SEQEND
 8
Poly
 0
POLYLINE
 8
Poly
 66
 1
 0
VERTEX
 8
Poly
 10
217
 20
188
 0
VERTEX
 8
Poly
 10
217
 20
189
 0
VERTEX
 8
Poly
 10
216
 20
189
 0
SEQEND
 8
Poly
 0
LINE
 8
Line
 10
219
 20
188
 11
217
 21
188
 0
POLYLINE
 8
Poly
 66
 1
 0
VERTEX
 8
Poly
 10
275
 20
189
 0
VERTEX
 8
Poly
 10
274
 20
190
 0
VERTEX
 8
Poly
 10
275
 20
189
 0
SEQEND
 8
Poly
 0
POLYLINE
 8
Poly
 66
 1
 0
VERTEX
 8
Poly
 10
266
 20
187
 0
VERTEX
 8
Poly
 10
265
 20
189
 0
VERTEX
 8
Poly
 10
265
 20
186
 0
VERTEX
 8
Poly
 10
266
 20
187
 0
VERTEX
 8
Poly
 10
265
 20
186
 0
SEQEND
 8
Poly
 0
POLYLINE
 8
Poly
 66
 1
 0
VERTEX
 8
Poly
 10
157
 20
188
 0
VERTEX
 8
Poly
 10
157
 20
186
 0
VERTEX
 8
Poly
 10
162
 20
186
 0
VERTEX
 8
Poly
 10
162
 20
188
 0
VERTEX
 8
Poly
 10
157
 20
188
 0
SEQEND
 8
Poly
 0
POLYLINE
 8
Poly
 66
 1
 0
VERTEX
 8
Poly
 10
230
 20
188
 0
VERTEX
 8
Poly
 10
231
 20
182
 0
VERTEX
 8
Poly
 10
229
 20
182
 0
VERTEX
 8
Poly
 10
230
 20
188
 0
SEQEND
 8
Poly
 0
POLYLINE
 8
Poly
 66
 1
 0
VERTEX
 8
Poly
 10
254
 20
187
 0
VERTEX
 8
Poly
 10
254
 20
188
 0
VERTEX
 8
Poly
 10
253
 20
187
 0
SEQEND
 8
Poly
 0
LINE
 8
Line
 10
254
 20
188
 11
254
 21
187
 0
POLYLINE
 8
Poly
 66
 1
 0
VERTEX
 8
Poly
 10
175
 20
186
 0
VERTEX
 8
Poly
 10
177
 20
184
 0
VERTEX
 8
Poly
 10
175
 20
186
 0
SEQEND
 8
Poly
 0
POLYLINE
 8
Poly
 66
 1
 0
VERTEX
 8
Poly
 10
239
 20
184
 0
VERTEX
 8
Poly
 10
239
 20
186
 0
VERTEX
 8
Poly
 10
239
 20
184
 0
VERTEX
 8
Poly
 10
238
 20
183
 0
SEQEND
 8
Poly
 0
POLYLINE
 8
Poly
 66
 1
 0
VERTEX
 8
Poly
 10
165
 20
185
 0
VERTEX
 8
Poly
 10
164
 20
184
 0
VERTEX
 8
Poly
 10
163
 20
184
 0
VERTEX
 8
Poly
 10
168
 20
185
 0
VERTEX
 8
Poly
 10
165
 20
185
 0
SEQEND
 8
Poly
 0
POLYLINE
 8
Poly
 66
 1
 0
VERTEX
 8
Poly
 10
199
 20
183
 0
VERTEX
 8
Poly
 10
197
 20
185
 0
VERTEX
 8
Poly
 10
199
 20
184
 0
VERTEX
 8
Poly
 10
199
 20
183
 0
VERTEX
 8
Poly
 10
200
 20
182
 0
SEQEND
 8
Poly
 0
LINE
 8
Line
 10
199
 20
184
 11
200
 21
184
 0
POLYLINE
 8
Poly
 66
 1
 0
VERTEX
 8
Poly
 10
249
 20
185
 0
VERTEX
 8
Poly
 10
249
 20
183
 0
VERTEX
 8
Poly
 10
254
 20
184
 0
VERTEX
 8
Poly
 10
249
 20
185
 0
SEQEND
 8
Poly
 0
LINE
 8
Line
 10
254
 20
184
 11
255
 21
183
 0
POLYLINE
 8
Poly
 66
 1
 0
VERTEX
 8
Poly
 10
261
 20
184
 0
VERTEX
 8
Poly
 10
261
 20
185
 0
VERTEX
 8
Poly
 10
260
 20
184
 0
SEQEND
 8
Poly
 0
LINE
 8
Line
 10
261
 20
185
 11
261
 21
184
 0
POLYLINE
 8
Poly
 66
 1
 0
VERTEX
 8
Poly
 10
184
 20
184
 0
VERTEX
 8
Poly
 10
183
 20
184
 0
VERTEX
 8
Poly
 10
184
 20
183
 0
SEQEND
 8
Poly
 0
POLYLINE
 8
Poly
 66
 1
 0
VERTEX
 8
Poly
 10
183
 20
184
 0
VERTEX
 8
Poly
 10
183
 20
182
 0
VERTEX
 8
Poly
 10
184
 20
183
 0
VERTEX
 8
Poly
 10
183
 20
182
 0
SEQEND
 8
Poly
 0
POLYLINE
 8
Poly
 66
 1
 0
VERTEX
 8
Poly
 10
145
 20
182
 0
VERTEX
 8
Poly
 10
146
 20
183
 0
VERTEX
 8
Poly
 10
145
 20
181
 0
VERTEX
 8
Poly
 10
145
 20
182
 0
VERTEX
 8
Poly
 10
144
 20
182
 0
SEQEND
 8
Poly
 0
LINE
 8
Line
 10
203
 20
181
 11
204
 21
183
 0
LINE
 8
Line
 10
204
 20
181
 11
203
 21
181
 0
LINE
 8
Line
 10
204
 20
183
 11
204
 21
180
 0
POLYLINE
 8
Poly
 66
 1
 0
VERTEX
 8
Poly
 10
271
 20
180
 0
VERTEX
 8
Poly
 10
271
 20
183
 0
VERTEX
 8
Poly
 10
271
 20
180
 0
VERTEX
 8
Poly
 10
272
 20
179
 0
SEQEND
 8
Poly
 0
POLYLINE
 8
Poly
 66
 1
 0
VERTEX
 8
Poly
 10
207
 20
179
 0
VERTEX
 8
Poly
 10
207
 20
181
 0
VERTEX
 8
Poly
 10
207
 20
179
 0
VERTEX
 8
Poly
 10
206
 20
178
 0
SEQEND
 8
Poly
 0
POLYLINE
 8
Poly
 66
 1
 0
VERTEX
 8
Poly
 10
214
 20
179
 0
VERTEX
 8
Poly
 10
214
 20
181
 0
VERTEX
 8
Poly
 10
214
 20
178
 0
SEQEND
 8
Poly
 0
POLYLINE
 8
Poly
 66
 1
 0
VERTEX
 8
Poly
 10
403
 20
179
 0
VERTEX
 8
Poly
 10
403
 20
181
 0
VERTEX
 8
Poly
 10
405
 20
181
 0
SEQEND
 8
Poly
 0
LINE
 8
Line
 10
405
 20
179
 11
403
 21
179
 0
LINE
 8
Line
 10
405
 20
181
 11
405
 21
179
 0
POLYLINE
 8
Poly
 66
 1
 0
VERTEX
 8
Poly
 10
252
 20
180
 0
VERTEX
 8
Poly
 10
251
 20
180
 0
VERTEX
 8
Poly
 10
252
 20
179
 0
VERTEX
 8
Poly
 10
251
 20
180
 0
SEQEND
 8
Poly
 0
LINE
 8
Line
 10
252
 20
179
 11
253
 21
179
 0
POLYLINE
 8
Poly
 66
 1
 0
VERTEX
 8
Poly
 10
282
 20
180
 0
VERTEX
 8
Poly
 10
282
 20
176
 0
VERTEX
 8
Poly
 10
283
 20
175
 0
VERTEX
 8
Poly
 10
284
 20
177
 0
VERTEX
 8
Poly
 10
282
 20
180
 0
SEQEND
 8
Poly
 0
POLYLINE
 8
Poly
 66
 1
 0
VERTEX
 8
Poly
 10
399
 20
177
 0
VERTEX
 8
Poly
 10
399
 20
179
 0
VERTEX
 8
Poly
 10
401
 20
179
 0
SEQEND
 8
Poly
 0
LINE
 8
Line
 10
401
 20
177
 11
399
 21
177
 0
LINE
 8
Line
 10
401
 20
179
 11
401
 21
177
 0
POLYLINE
 8
Poly
 66
 1
 0
VERTEX
 8
Poly
 10
200
 20
178
 0
VERTEX
 8
Poly
 10
199
 20
178
 0
VERTEX
 8
Poly
 10
200
 20
177
 0
VERTEX
 8
Poly
 10
199
 20
178
 0
SEQEND
 8
Poly
 0
LINE
 8
Line
 10
200
 20
177
 11
201
 21
177
 0
POLYLINE
 8
Poly
 66
 1
 0
VERTEX
 8
Poly
 10
237
 20
176
 0
VERTEX
 8
Poly
 10
237
 20
178
 0
VERTEX
 8
Poly
 10
237
 20
176
 0
VERTEX
 8
Poly
 10
238
 20
175
 0
SEQEND
 8
Poly
 0
POLYLINE
 8
Poly
 66
 1
 0
VERTEX
 8
Poly
 10
192
 20
177
 0
VERTEX
 8
Poly
 10
193
 20
172
 0
VERTEX
 8
Poly
 10
190
 20
175
 0
VERTEX
 8
Poly
 10
191
 20
175
 0
VERTEX
 8
Poly
 10
192
 20
177
 0
SEQEND
 8
Poly
 0
POLYLINE
 8
Poly
 66
 1
 0
VERTEX
 8
Poly
 10
247
 20
177
 0
VERTEX
 8
Poly
 10
249
 20
175
 0
VERTEX
 8
Poly
 10
247
 20
177
 0
SEQEND
 8
Poly
 0
POLYLINE
 8
Poly
 66
 1
 0
VERTEX
 8
Poly
 10
254
 20
177
 0
VERTEX
 8
Poly
 10
253
 20
177
 0
VERTEX
 8
Poly
 10
254
 20
176
 0
VERTEX
 8
Poly
 10
253
 20
177
 0
SEQEND
 8
Poly
 0
LINE
 8
Line
 10
254
 20
176
 11
255
 21
176
 0
POLYLINE
 8
Poly
 66
 1
 0
VERTEX
 8
Poly
 10
258
 20
176
 0
VERTEX
 8
Poly
 10
259
 20
177
 0
VERTEX
 8
Poly
 10
258
 20
176
 0
VERTEX
 8
Poly
 10
257
 20
174
 0
SEQEND
 8
Poly
 0
POLYLINE
 8
Poly
 66
 1
 0
VERTEX
 8
Poly
 10
323
 20
175
 0
VERTEX
 8
Poly
 10
323
 20
177
 0
VERTEX
 8
Poly
 10
325
 20
177
 0
SEQEND
 8
Poly
 0
LINE
 8
Line
 10
325
 20
175
 11
323
 21
175
 0
LINE
 8
Line
 10
325
 20
177
 11
325
 21
175
 0
POLYLINE
 8
Poly
 66
 1
 0
VERTEX
 8
Poly
 10
226
 20
176
 0
VERTEX
 8
Poly
 10
228
 20
174
 0
VERTEX
 8
Poly
 10
226
 20
176
 0
SEQEND
 8
Poly
 0
POLYLINE
 8
Poly
 66
 1
 0
VERTEX
 8
Poly
 10
232
 20
174
 0
VERTEX
 8
Poly
 10
233
 20
176
 0
VERTEX
 8
Poly
 10
232
 20
174
 0
VERTEX
 8
Poly
 10
231
 20
174
 0
SEQEND
 8
Poly
 0
POLYLINE
 8
Poly
 66
 1
 0
VERTEX
 8
Poly
 10
202
 20
173
 0
VERTEX
 8
Poly
 10
201
 20
175
 0
VERTEX
 8
Poly
 10
205
 20
174
 0
SEQEND
 8
Poly
 0
LINE
 8
Line
 10
205
 20
173
 11
202
 21
173
 0
POLYLINE
 8
Poly
 66
 1
 0
VERTEX
 8
Poly
 10
205
 20
173
 0
VERTEX
 8
Poly
 10
205
 20
174
 0
VERTEX
 8
Poly
 10
206
 20
174
 0
SEQEND
 8
Poly
 0
POLYLINE
 8
Poly
 66
 1
 0
VERTEX
 8
Poly
 10
245
 20
174
 0
VERTEX
 8
Poly
 10
249
 20
170
 0
VERTEX
 8
Poly
 10
245
 20
168
 0
VERTEX
 8
Poly
 10
245
 20
174
 0
SEQEND
 8
Poly
 0
POLYLINE
 8
Poly
 66
 1
 0
VERTEX
 8
Poly
 10
265
 20
174
 0
VERTEX
 8
Poly
 10
262
 20
174
 0
VERTEX
 8
Poly
 10
266
 20
174
 0
SEQEND
 8
Poly
 0
POLYLINE
 8
Poly
 66
 1
 0
VERTEX
 8
Poly
 10
144
 20
173
 0
VERTEX
 8
Poly
 10
147
 20
173
 0
VERTEX
 8
Poly
 10
144
 20
173
 0
SEQEND
 8
Poly
 0
POLYLINE
 8
Poly
 66
 1
 0
VERTEX
 8
Poly
 10
284
 20
172
 0
VERTEX
 8
Poly
 10
285
 20
173
 0
VERTEX
 8
Poly
 10
285
 20
171
 0
VERTEX
 8
Poly
 10
284
 20
172
 0
VERTEX
 8
Poly
 10
285
 20
171
 0
SEQEND
 8
Poly
 0
POLYLINE
 8
Poly
 66
 1
 0
VERTEX
 8
Poly
 10
325
 20
171
 0
VERTEX
 8
Poly
 10
325
 20
173
 0
VERTEX
 8
Poly
 10
327
 20
173
 0
SEQEND
 8
Poly
 0
LINE
 8
Line
 10
327
 20
171
 11
325
 21
171
 0
LINE
 8
Line
 10
327
 20
173
 11
327
 21
171
 0
LINE
 8
Line
 10
144
 20
167
 11
141
 21
167
 0
POLYLINE
 8
Poly
 66
 1
 0
VERTEX
 8
Poly
 10
141
 20
166
 0
VERTEX
 8
Poly
 10
144
 20
167
 0
VERTEX
 8
Poly
 10
145
 20
166
 0
VERTEX
 8
Poly
 10
147
 20
167
 0
VERTEX
 8
Poly
 10
147
 20
166
 0
SEQEND
 8
Poly
 0
LINE
 8
Line
 10
145
 20
166
 11
148
 21
166
 0
POLYLINE
 8
Poly
 66
 1
 0
VERTEX
 8
Poly
 10
277
 20
171
 0
VERTEX
 8
Poly
 10
278
 20
172
 0
VERTEX
 8
Poly
 10
278
 20
168
 0
VERTEX
 8
Poly
 10
277
 20
171
 0
SEQEND
 8
Poly
 0
POLYLINE
 8
Poly
 66
 1
 0
VERTEX
 8
Poly
 10
208
 20
170
 0
VERTEX
 8
Poly
 10
209
 20
171
 0
VERTEX
 8
Poly
 10
209
 20
169
 0
VERTEX
 8
Poly
 10
208
 20
170
 0
VERTEX
 8
Poly
 10
209
 20
169
 0
SEQEND
 8
Poly
 0
POLYLINE
 8
Poly
 66
 1
 0
VERTEX
 8
Poly
 10
399
 20
169
 0
VERTEX
 8
Poly
 10
399
 20
171
 0
VERTEX
 8
Poly
 10
401
 20
171
 0
SEQEND
 8
Poly
 0
LINE
 8
Line
 10
401
 20
169
 11
399
 21
169
 0
LINE
 8
Line
 10
401
 20
171
 11
401
 21
169
 0
POLYLINE
 8
Poly
 66
 1
 0
VERTEX
 8
Poly
 10
194
 20
168
 0
VERTEX
 8
Poly
 10
193
 20
170
 0
VERTEX
 8
Poly
 10
197
 20
165
 0
SEQEND
 8
Poly
 0
POLYLINE
 8
Poly
 66
 1
 0
VERTEX
 8
Poly
 10
194
 20
168
 0
VERTEX
 8
Poly
 10
197
 20
168
 0
VERTEX
 8
Poly
 10
199
 20
164
 0
VERTEX
 8
Poly
 10
199
 20
160
 0
VERTEX
 8
Poly
 10
197
 20
160
 0
VERTEX
 8
Poly
 10
197
 20
165
 0
SEQEND
 8
Poly
 0
POLYLINE
 8
Poly
 66
 1
 0
VERTEX
 8
Poly
 10
272
 20
169
 0
VERTEX
 8
Poly
 10
271
 20
170
 0
VERTEX
 8
Poly
 10
271
 20
168
 0
VERTEX
 8
Poly
 10
272
 20
169
 0
VERTEX
 8
Poly
 10
271
 20
168
 0
SEQEND
 8
Poly
 0
POLYLINE
 8
Poly
 66
 1
 0
VERTEX
 8
Poly
 10
225
 20
166
 0
VERTEX
 8
Poly
 10
226
 20
167
 0
VERTEX
 8
Poly
 10
226
 20
165
 0
VERTEX
 8
Poly
 10
225
 20
166
 0
VERTEX
 8
Poly
 10
223
 20
163
 0
VERTEX
 8
Poly
 10
226
 20
165
 0
SEQEND
 8
Poly
 0
POLYLINE
 8
Poly
 66
 1
 0
VERTEX
 8
Poly
 10
222
 20
160
 0
VERTEX
 8
Poly
 10
223
 20
163
 0
VERTEX
 8
Poly
 10
222
 20
160
 0
VERTEX
 8
Poly
 10
221
 20
159
 0
SEQEND
 8
Poly
 0
POLYLINE
 8
Poly
 66
 1
 0
VERTEX
 8
Poly
 10
251
 20
166
 0
VERTEX
 8
Poly
 10
250
 20
167
 0
VERTEX
 8
Poly
 10
251
 20
166
 0
VERTEX
 8
Poly
 10
252
 20
165
 0
SEQEND
 8
Poly
 0
POLYLINE
 8
Poly
 66
 1
 0
VERTEX
 8
Poly
 10
233
 20
161
 0
VERTEX
 8
Poly
 10
232
 20
166
 0
VERTEX
 8
Poly
 10
231
 20
163
 0
SEQEND
 8
Poly
 0
LINE
 8
Line
 10
227
 20
163
 11
233
 21
161
 0
LINE
 8
Line
 10
231
 20
163
 11
227
 21
163
 0
POLYLINE
 8
Poly
 66
 1
 0
VERTEX
 8
Poly
 10
162
 20
165
 0
VERTEX
 8
Poly
 10
163
 20
162
 0
VERTEX
 8
Poly
 10
162
 20
161
 0
VERTEX
 8
Poly
 10
158
 20
161
 0
VERTEX
 8
Poly
 10
162
 20
165
 0
SEQEND
 8
Poly
 0
POLYLINE
 8
Poly
 66
 1
 0
VERTEX
 8
Poly
 10
215
 20
162
 0
VERTEX
 8
Poly
 10
214
 20
165
 0
VERTEX
 8
Poly
 10
215
 20
162
 0
VERTEX
 8
Poly
 10
216
 20
161
 0
SEQEND
 8
Poly
 0
POLYLINE
 8
Poly
 66
 1
 0
VERTEX
 8
Poly
 10
319
 20
163
 0
VERTEX
 8
Poly
 10
319
 20
165
 0
VERTEX
 8
Poly
 10
321
 20
165
 0
SEQEND
 8
Poly
 0
LINE
 8
Line
 10
321
 20
163
 11
319
 21
163
 0
LINE
 8
Line
 10
321
 20
165
 11
321
 21
163
 0
POLYLINE
 8
Poly
 66
 1
 0
VERTEX
 8
Poly
 10
270
 20
163
 0
VERTEX
 8
Poly
 10
270
 20
157
 0
VERTEX
 8
Poly
 10
272
 20
157
 0
VERTEX
 8
Poly
 10
270
 20
163
 0
SEQEND
 8
Poly
 0
POLYLINE
 8
Poly
 66
 1
 0
VERTEX
 8
Poly
 10
301
 20
162
 0
VERTEX
 8
Poly
 10
300
 20
159
 0
VERTEX
 8
Poly
 10
303
 20
159
 0
VERTEX
 8
Poly
 10
301
 20
162
 0
SEQEND
 8
Poly
 0
POLYLINE
 8
Poly
 66
 1
 0
VERTEX
 8
Poly
 10
146
 20
158
 0
VERTEX
 8
Poly
 10
145
 20
161
 0
VERTEX
 8
Poly
 10
146
 20
158
 0
VERTEX
 8
Poly
 10
147
 20
157
 0
SEQEND
 8
Poly
 0
POLYLINE
 8
Poly
 66
 1
 0
VERTEX
 8
Poly
 10
159
 20
156
 0
VERTEX
 8
Poly
 10
157
 20
158
 0
VERTEX
 8
Poly
 10
156
 20
160
 0
VERTEX
 8
Poly
 10
155
 20
158
 0
SEQEND
 8
Poly
 0
POLYLINE
 8
Poly
 66
 1
 0
VERTEX
 8
Poly
 10
155
 20
158
 0
VERTEX
 8
Poly
 10
151
 20
158
 0
VERTEX
 8
Poly
 10
151
 20
156
 0
VERTEX
 8
Poly
 10
159
 20
156
 0
SEQEND
 8
Poly
 0
POLYLINE
 8
Poly
 66
 1
 0
VERTEX
 8
Poly
 10
322
 20
156
 0
VERTEX
 8
Poly
 10
324
 20
160
 0
VERTEX
 8
Poly
 10
326
 20
160
 0
VERTEX
 8
Poly
 10
322
 20
156
 0
SEQEND
 8
Poly
 0
POLYLINE
 8
Poly
 66
 1
 0
VERTEX
 8
Poly
 10
164
 20
158
 0
VERTEX
 8
Poly
 10
163
 20
159
 0
VERTEX
 8
Poly
 10
163
 20
157
 0
VERTEX
 8
Poly
 10
164
 20
158
 0
VERTEX
 8
Poly
 10
165
 20
157
 0
SEQEND
 8
Poly
 0
LINE
 8
Line
 10
163
 20
157
 11
162
 21
156
 0
POLYLINE
 8
Poly
 66
 1
 0
VERTEX
 8
Poly
 10
165
 20
157
 0
VERTEX
 8
Poly
 10
171
 20
156
 0
VERTEX
 8
Poly
 10
171
 20
158
 0
VERTEX
 8
Poly
 10
165
 20
157
 0
SEQEND
 8
Poly
 0
POLYLINE
 8
Poly
 66
 1
 0
VERTEX
 8
Poly
 10
263
 20
158
 0
VERTEX
 8
Poly
 10
264
 20
159
 0
VERTEX
 8
Poly
 10
263
 20
157
 0
VERTEX
 8
Poly
 10
263
 20
158
 0
VERTEX
 8
Poly
 10
262
 20
158
 0
SEQEND
 8
Poly
 0
POLYLINE
 8
Poly
 66
 1
 0
VERTEX
 8
Poly
 10
201
 20
157
 0
VERTEX
 8
Poly
 10
202
 20
153
 0
VERTEX
 8
Poly
 10
199
 20
155
 0
VERTEX
 8
Poly
 10
201
 20
157
 0
SEQEND
 8
Poly
 0
POLYLINE
 8
Poly
 66
 1
 0
VERTEX
 8
Poly
 10
228
 20
156
 0
VERTEX
 8
Poly
 10
227
 20
157
 0
VERTEX
 8
Poly
 10
227
 20
155
 0
VERTEX
 8
Poly
 10
228
 20
156
 0
VERTEX
 8
Poly
 10
227
 20
155
 0
SEQEND
 8
Poly
 0
POLYLINE
 8
Poly
 66
 1
 0
VERTEX
 8
Poly
 10
233
 20
157
 0
VERTEX
 8
Poly
 10
237
 20
155
 0
VERTEX
 8
Poly
 10
237
 20
157
 0
VERTEX
 8
Poly
 10
233
 20
157
 0
SEQEND
 8
Poly
 0
POLYLINE
 8
Poly
 66
 1
 0
VERTEX
 8
Poly
 10
260
 20
157
 0
VERTEX
 8
Poly
 10
259
 20
157
 0
VERTEX
 8
Poly
 10
260
 20
153
 0
VERTEX
 8
Poly
 10
259
 20
152
 0
VERTEX
 8
Poly
 10
253
 20
153
 0
VERTEX
 8
Poly
 10
253
 20
155
 0
VERTEX
 8
Poly
 10
258
 20
155
 0
VERTEX
 8
Poly
 10
259
 20
157
 0
SEQEND
 8
Poly
 0
POLYLINE
 8
Poly
 66
 1
 0
VERTEX
 8
Poly
 10
275
 20
156
 0
VERTEX
 8
Poly
 10
275
 20
157
 0
VERTEX
 8
Poly
 10
274
 20
156
 0
SEQEND
 8
Poly
 0
LINE
 8
Line
 10
275
 20
157
 11
275
 21
156
 0
POLYLINE
 8
Poly
 66
 1
 0
VERTEX
 8
Poly
 10
284
 20
156
 0
VERTEX
 8
Poly
 10
285
 20
157
 0
VERTEX
 8
Poly
 10
284
 20
156
 0
VERTEX
 8
Poly
 10
283
 20
155
 0
SEQEND
 8
Poly
 0
ARC
 8
Line
 10
141.386363636364
 20
422.545454545455
 40
43.9549508771375
 50
70.5813282504456
 51
105.013475426028
 0
ARC
 8
Line
 10
312.178571428571
 20
285.642857142857
 40
179.385306004154
 50
79.457425772513
 51
96.1373779039606
 0
ARC
 8
Line
 10
246.673076923077
 20
413.307692307692
 40
52.414854171979
 50
75.2703467625723
 51
108.547958103426
 0
ARC
 8
Line
 10
273.869565217391
 20
419.478260869565
 40
46.0768036396666
 50
70.8298726312308
 51
104.927934575452
 0
ARC
 8
Line
 10
227.5
 20
449.5
 40
12.747548783982
 50
-168.690067525985
 51
-131.82016988014
 0
ARC
 8
Line
 10
239.5
 20
447
 40
12.5
 50
53.1301023541576
 51
126.869897645848
 0
ARC
 8
Line
 10
261
 20
446
 40
13.0384048104053
 50
57.5288077091532
 51
122.471192290852
 0
ARC
 8
Line
 10
379.5
 20
423.5
 40
34.8209706929605
 50
68.9624889745803
 51
111.037511025425
 0
ARC
 8
Line
 10
386
 20
392.5
 40
24.5203996704786
 50
87.6626941408788
 51
106.587338556931
 0
ARC
 8
Line
 10
388.5
 20
428
 40
19.0065778087482
 50
-91.5074357587777
 51
-63.4349488229239
 0
ARC
 8
Line
 10
165.041666666667
 20
391.958333333333
 40
16.9706650494971
 50
-49.7801629646392
 51
45.1989428793619
 0
ARC
 8
Line
 10
191.844827586207
 20
441.51724137931
 40
13.9178091029415
 50
-43.1426807791437
 51
63.7523737166764
 0
ARC
 8
Line
 10
161
 20
445
 40
20.6155281280883
 50
-22.8336541779183
 51
22.8336541779183
 0
ARC
 8
Line
 10
396.5
 20
429.5
 40
10.5118980208143
 50
64.6538240580552
 51
115.34617594195
 0
ARC
 8
Line
 10
221.166666666667
 20
424.5
 40
16.2361051706101
 50
144.188836077363
 51
-174.699073483479
 0
ARC
 8
Line
 10
44.5
 20
405
 40
160.512460575496
 50
-0.713929148885625
 51
6.43873960110929
 0
ARC
 8
Line
 10
250.214285714286
 20
426.642857142857
 40
11.219971261195
 50
178.175910167629
 51
-137.063819728461
 0
ARC
 8
Line
 10
342.833333333333
 20
438.5
 40
26.3997053855615
 50
-135.511555866591
 51
-105.001318460475
 0
CIRCLE
 8
Line
 10
313
 20
412
 40
11
 0
ARC
 8
Line
 10
417.5
 20
400.5
 40
10.5118980208143
 50
154.653824058058
 51
-177.273689006099
 0
ARC
 8
Line
 10
392.357142857143
 20
410.857142857143
 40
11.6988138243995
 50
-111.866370659782
 51
-24.5308103675187
 0
ARC
 8
Line
 10
275.5
 20
379.5
 40
11.5108644332213
 50
124.380344723849
 51
177.510447078006
 0
ARC
 8
Line
 10
284
 20
334.5
 40
16.6207701385947
 50
83.0887728809778
 51
136.218875235135
 0
CIRCLE
 8
Line
 10
332
 20
363
 40
12
 0
ARC
 8
Line
 10
269.5
 20
331
 40
40.5123437979093
 50
167.164390513604
 51
-178.585576788603
 0
ARC
 8
Line
 10
335.833333333333
 20
360.5
 40
10.1461541701496
 50
132.336999233937
 51
-165.735487701925
 0
ARC
 8
Line
 10
232.5
 20
303.5
 40
20.5548047910945
 50
71.5650511770801
 51
94.1849161251212
 0
ARC
 8
Line
 10
339.25
 20
323.125
 40
34.7502248194166
 50
53.3362013915417
 51
77.1135174707983
 0
ARC
 8
Line
 10
318
 20
327
 40
10.770329614269
 50
-158.198590513653
 51
-68.1985905136502
 0
ARC
 8
Line
 10
414.318181818182
 20
341.590909090909
 40
22.6011957556847
 50
-114.348589057047
 51
-72.8040796929537
 0
ARC
 8
Line
 10
407.928571428571
 20
318.642857142857
 40
18.0828591743221
 50
-2.03733069682005
 51
73.7126366053787
 0
ARC
 8
Line
 10
379.707407407407
 20
296.411111111111
 40
15.9193276598382
 50
58.6064531673761
 51
170.640676404958
 0
ARC
 8
Line
 10
406
 20
359.5
 40
24.5203996704786
 50
87.6626941408788
 51
106.587338556931
 0
ARC
 8
Line
 10
412
 20
372.5
 40
16.6207701385947
 50
68.8387401831738
 51
111.161259816832
 0
ARC
 8
Line
 10
389
 20
306
 40
12.0415945787923
 50
175.236358309279
 51
-131.633539336574
 0
ARC
 8
Line
 10
415.833333333333
 20
270.833333333333
 40
22.2423519939377
 50
94.727987818845
 51
125.238225224961
 0
ARC
 8
Line
 10
230.833333333333
 20
388.166666666667
 40
13.8343373129648
 50
58.7994853960212
 51
89.3097228021376
 0
ARC
 8
Line
 10
347.5
 20
393.5
 40
10.7935165724615
 50
-13.3924977537515
 51
76.6075022462512
 0
CIRCLE
 8
Line
 10
303
 20
370
 40
11
 0
ARC
 8
Line
 10
152.136363636364
 20
368.954545454546
 40
12.0989378674602
 50
-132.259209405821
 51
-81.1392790621722
 0
ARC
 8
Line
 10
151.87037037037
 20
340.055555555556
 40
12.0869336200173
 50
47.7322159490052
 51
124.639634382419
 0
ARC
 8
Line
 10
175.5
 20
451.5
 40
104.510764995765
 50
-97.9750397299958
 51
-89.1776290200045
 0
ARC
 8
Line
 10
158.5
 20
367.5
 40
30.7001628660175
 50
-120.323606862554
 51
-52.943471810592
 0
ARC
 8
Line
 10
152.5
 20
338.5
 40
12.747548783982
 50
48.1798301198657
 51
138.179830119868
 0
ARC
 8
Line
 10
211
 20
336.5
 40
11.0113577727726
 50
-2.60256220249988
 51
50.5275401516577
 0
ARC
 8
Line
 10
254.5
 20
306.5
 40
36.503424496888
 50
89.2151753970108
 51
103.465208094815
 0
ARC
 8
Line
 10
166.166666666667
 20
330
 40
11.9315175527303
 50
-24.7751405688326
 51
48.9646547228575
 0
ARC
 8
Line
 10
191.013513513513
 20
328.986486486487
 40
13.4345395051927
 50
-48.0170713007759
 51
153.409174744812
 0
ARC
 8
Line
 10
401.417475728155
 20
74.3300970873786
 40
212.039774038605
 50
75.9204899520326
 51
105.150428019102
 0
ARC
 8
Line
 10
142.75
 20
79.125
 40
183.163391880037
 50
24.8161051325245
 51
38.0430260971544
 0
ARC
 8
Line
 10
-55.9123020706456
 20
-288.569427527405
 40
595.671596655117
 50
61.3157014685702
 51
80.5391897557232
 0
ARC
 8
Line
 10
266.739669421488
 20
292.276859504132
 40
19.3393948144759
 50
26.8114242479748
 51
113.590823042979
 0
ARC
 8
Line
 10
271.5
 20
314.5
 40
20.5548047910945
 50
-161.565051177083
 51
-131.054813770966
 0
ARC
 8
Line
 10
265.5
 20
307.5
 40
10.5118980208143
 50
-154.653824058058
 51
-64.6538240580552
 0
ARC
 8
Line
 10
262.307692307692
 20
304.615384615385
 40
14.2805781130388
 50
-125.573554919107
 51
-62.0545947494795
 0
ARC
 8
Line
 10
276.98
 20
321.38
 40
30.4444543390089
 50
-105.195696966401
 51
-68.7787280252379
 0
ARC
 8
Line
 10
362.5
 20
299
 40
12.5
 50
73.7397952916902
 51
126.869897645848
 0
ARC
 8
Line
 10
282.5
 20
307.5
 40
12.747548783982
 50
-131.82016988014
 51
-41.820169880137
 0
ENDSEC
 0
EOF
